Palma Violets

California Sun

Palma Violets

tabs

by  CARLLUZ

save to print version add songbook text version e-mail correct tuner
chordsukulelecavacokeyboardtabbassdrumsharmonicaflute Guitar Pro
close

there isn't a video lesson for this song

chords

California Sun

	  		

e|-----------------------0---------------------------------------------------| 
B|---------0--0--0-0-2-2---0----------Keyboard Plays-------------------------| 
G|------1--------------------------------------------------------------------| 
D|--2-2----------------------------------------------------------------------| 
A|---------------------------------------------------------------------------| 
E|---------------------------------------------------------------------------| 

e|-----------------------0---------------------------------------------------| 
B|---------0--0--0-0-2-2---0----------Keyboard Plays-------------------------| 
G|------1--------------------------------------------------------------------| 
D|--2-2----------------------------------------------------------------------| 
A|---------------------------------------------------------------------------| 
E|---------------------------------------------------------------------------| 

e|--3-0----------------------------------------------------------------------| 
B|------2-0---0--------------------------------------------------------------| 
G|----------1---------------2-44-55-4-------------2-44-55-4------------------| 
D|----------------2-4-22-4--2-44-55-4---2-4-22-4--2-44-55-4------------------| 
A|----------------2-4-22-4--0-00-00-0---2-4-22-4--0-00-00-0------------------| 
E|----------------0-0-00-0--------------0-0-00-0-----------------------------| 

e|---------------------------------------------------------------------------| 
B|---------------------------------------------------------------------------| 
G|----------6-6-666--2-2-4-4-------------------------------------------------| 
D|-2-2-222--6-6-666--2-2-4-4--22222------------------------------------------| 
A|-2-2-222--4-4-444--0-0-2-2--22222------------------------------------------| 
E|-0-0-000--------------------00000------------------------------------------| 

N.C 
Well I'm going out west where I belong 


e|-----------------------0---------------------------------------------------| 
B|---------0--0--0-0-2-2---0-------------------------------------------------| 
G|------1--------------------------------------------------------------------| 
D|--2-2----------------------------------------------------------------------| 
A|---------------------------------------------------------------------------| 
E|---------------------------------------------------------------------------| 

N.C 
Where the days are short and the nights are long 

e|-----------------------0---------------------------------------------------| 
B|---------0--0--0-0-2-2---0-------------------------------------------------| 
G|------1--------------------------------------------------------------------| 
D|--2-2----------------------------------------------------------------------| 
A|---------------------------------------------------------------------------| 
E|---------------------------------------------------------------------------| 

When I walk and They walk 
I Twist and They Twist 
I Shimmy and They Shimmy 
I fly and They fly 

e|--------------------------------------------------------------------------| 
B|--------------------------------------------------------------------------| 
G|------------2-44-55-4-------------2-44-55-4-------------------------------| 
D|--2-4-22-4--2-44-55-4---2-4-22-4--2-44-55-4-------------------------------| 
A|--2-4-22-4--0-00-00-0---2-4-22-4--0-00-00-0-------------------------------| 
E|--0-0-00-0--------------0-0-00-0------------------------------------------| 


We're out there having fun in the warm California sun 

e|--------------------------------------------------------------------------| 
B|--------------------------------------------------------------------------| 
G|----------6-6-666--2-2-4-4------------------------------------------------| 
D|-2-2-222--6-6-666--2-2-4-4--22222-----------------------------------------| 
A|-2-2-222--4-4-444--0-0-2-2--22222-----------------------------------------| 
E|-0-0-000--------------------00000-----------------------------------------| 


N.C 
Well, I'm going out west out on the coast 


e|-----------------------0--------------------------------------------------| 
B|---------0--0--0-0-2-2---0------------------------------------------------| 
G|------1-------------------------------------------------------------------| 
D|--2-2---------------------------------------------------------------------| 
A|--------------------------------------------------------------------------| 
E|--------------------------------------------------------------------------| 

N.C 
Where the California girls are really the most 

e|-----------------------0--------------------------------------------------| 
B|---------0--0--0-0-2-2---0------------------------------------------------| 
G|------1-------------------------------------------------------------------| 
D|--2-2---------------------------------------------------------------------| 
A|--------------------------------------------------------------------------| 
E|--------------------------------------------------------------------------| 

When I walk and They walk 
I Twist and They Twist 
I Shimmy and They Shimmy 
I fly and They fly 

e|--------------------------------------------------------------------------| 
B|--------------------------------------------------------------------------| 
G|------------2-44-55-4-------------2-44-55-4-------------------------------| 
D|--2-4-22-4--2-44-55-4---2-4-22-4--2-44-55-4-------------------------------| 
A|--2-4-22-4--0-00-00-0---2-4-22-4--0-00-00-0-------------------------------| 
E|--0-0-00-0--------------0-0-00-0------------------------------------------| 


We're out there having fun in the warm California sun 

e|--------------------------------------------------------------------------| 
B|--------------------------------------------------------------------------| 
G|----------6-6-666--2-2-4-4------------------------------------------------| 
D|-2-2-222--6-6-666--2-2-4-4--22222-----------------------------------------| 
A|-2-2-222--4-4-444--0-0-2-2--22222-----------------------------------------| 
E|-0-0-000--------------------00000-----------------------------------------| 






Solo 

e|-----------------------0-------------------------0------------------------| 
B|---------0--0--0-0-2-2---0---------0--0--0-0-2-2---0----------------------| 
G|------1-------------------------1-----------------------------------------| 
D|--2-2-----------------------2-2-------------------------------------------| 
A|--------------------------------------------------------------------------| 
E|--------------------------------------------------------------------------| 

e|-------------------------------3---3---3---3----------------------------3--|b 
B|45555555-45555555-45555555--5---5---5---5----45555555-45555555-45555555----| 
G|---------------------------------------------------------------------------| 
D|---------------------------------------------------------------------------| 
A|---------------------------------------------------------------------------| 
E|---------------------------------------------------------------------------| 



When I walk and They walk 
I Twist and They Twist 
I Shimmy and They Shimmy 
I fly and They fly 

e|--------------------------------------------------------------------------| 
B|--------------------------------------------------------------------------| 
G|------------2-44-55-4-------------2-44-55-4-------------------------------| 
D|--2-4-22-4--2-44-55-4---2-4-22-4--2-44-55-4-------------------------------| 
A|--2-4-22-4--0-00-00-0---2-4-22-4--0-00-00-0-------------------------------| 
E|--0-0-00-0--------------0-0-00-0------------------------------------------| 


We're out there having fun in the warm California sun 

e|--------------------------------------------------------------------------| 
B|--------------------------------------------------------------------------| 
G|----------6-6-666--2-2-4-4------------------------------------------------| 
D|-2-2-222--6-6-666--2-2-4-4--22222-----------------------------------------| 
A|-2-2-222--4-4-444--0-0-2-2--22222-----------------------------------------| 
E|-0-0-000--------------------00000-----------------------------------------|  
		  

auto scroll beats size up size down change color hide chords drawings
tab show chords e-chords YouTube Clip e-chords hide all tabs e-chords go to top tab

share