Ozzy Osbourne

home > Ozzy Osbourne

Paranoid (solo) Tab

Ozzy Osbourne

Difficulty: BeginnerBeginner

by Jack+Black

tuner correct add songbook print version text version save to e-mail
chordsukulelecavacokeyboardtabbassdrumsharmonicsflute Guitar Pro
chords

Paranoid (solo)

  		Paranoid - Solo 
 
---------------------|------------------------|-------------------------| 
---------------------|------------------------|-------------------------| 
--9r--7---9~---------|------9--7--9p-7--------|-------------------------| 
---------------------|------------------9/7---|--5h-7--5h-7-------------| 
---------------------|------------------------|--------------5h-7--7----| 
---------------------|------------------------|-------------------------| 
                                                                            
---------------------|-------------------------|----------------------------| 
---------------------|-------------------------|--------8--10--10r---8--10r-| 
---------------------|--------------7h-9--9----|--7/-9----------------------| 
--5------------------|--5h-7--7/-9-------------|----------------------------| 
-----7------7--------|-------------------------|----------------------------| 
---------------------|-------------------------|----------------------------| 
                                                   
------------------------|----------------------12------| 
-----8-10----8----------|------------------12------15--| 
----------------9--9----|--7h-9--9--9/-14--------------| 
------------------------|------------------------------| 
------------------------|------------------------------| 
------------------------|------------------------------| 
                                                           
--------------------------|--15b---15b---15r-12--15p12-----| 
--15~-----15b-----15b-12--|----------------------------15--| 
--------------------------|--------------------------------| 
--------------------------|--------------------------------| 
--------------------------|--------------------------------| 
--------------------------|--------------------------------| 
                                                                         
--15p12-------------------12------------|------------------------------| 
--------15b-15p12-----12------15p12-----|------------------------------| 
------------------14b---------------14--|--14p12-----12--14r---12~-----| 
----------------------------------------|--------14--------------------| 
----------------------------------------|------------------------------| 
----------------------------------------|------------------------------| 
                                                                      
--------------------------------------|----------------------------------| 
--------------------------------------|----------------------------------| 
--14b---12h14p12----12----------------|----------------------------------| 
-----------------14-----14--14p12-----|--12------------------------------| 
----------------------------------14--|--------12--10--12p10-----12/-14--| 
--------------------------------------|----------------------12----------| 
 
------------------------------|------------------------|------------------| 
------------------------------|------------------------|------------------| 
----------------12------------|------------------------|------------------| 
--12----12h-14------14--12----|--14--12------14--------|------------------| 
------------------------------|------------------------|------------------| 
------------------------------|------------------------|------------------| 

	  

Search Paypal
auto scroll beats size up size down change color hide chords drawings
tab show chords e-chords YouTube Clip e-chords hide all tabs e-chords go to top tab