Ozzy Osbourne

home > Ozzy Osbourne

Mr Crowley (intro) Tab

Ozzy Osbourne

Difficulty: BeginnerBeginner

by joaoewerton

tuner correct add songbook print version text version save to e-mail
chordsukulelecavacokeyboardtabbassdrumsharmonicsflute Guitar Pro
chords

Mr Crowley (intro)

  		E|----------------------------------------------------------| 
B|-------------------------------------------------3-5---5--| 
G|--------0-2------2-0----0-2--4-5------5-4-2--4-5-----4----| 
D|-0--2-3------2-------3------------5-----------------------| 
A|---------------0--------------------3---------------------| 
E|----------------------------------------------------------| 

E|-----------------------| 
B|-----------------------| 
G|-----------------------| 
D|-7--8--3--5--3--2--3-5-| 
A|-----------------------| 
E|-5--6--1--3--1--0--1-3-| 
	  

Search Paypal
auto scroll beats size up size down change color hide chords drawings
tab show chords e-chords YouTube Clip e-chords hide all tabs e-chords go to top tab