Ozzy Osbourne

Goodbye To Romance

Ozzy Osbourne

tabs Advanced advanced

by  DIEWITHME

save to print version add songbook text version e-mail correct tuner
chordsukulelecavacokeyboardtabbassdrumsharmonicaflute Guitar Pro
close

there isn't a video lesson for this song

chords

Goodbye To Romance

Year: 1980 - Album: Prince of Darkness

	  		E||-----------------0--|--2h-3--2--0--2p-0-----0--|-----0-----------------0--|
B||--------------3-----|--------------------3-----|--3-----2-----2-----3-----|
G||--------------------|--------------------------|-----------4-----0--------|
D||--------------------|--------------------------|--------------------------|
A||--------------------|--------------------------|--------------------------|
E||--------------------|--------------------------|--------------------------|


  Dmaj7                  F#m       F#m7            G6
----------5------5----|--9---------12--------|-----0-----0---------------|
--7----7---------7----|--10--------10--------|-----3--3-------3--0-2-3-5-|
--6--------------6----|--11--------9---------|-----0-------------0-2-4-6-|
--7----7---------7----|--11--------11--------|-----0---------------------|
--5--------------5----|--9---------9---------|---------------------------|
----------------------|----------------------|--3------------------------|


                           Dmaj7                     F#m       F#m7
------------------------|----------5-----9p5------|--9---------12--------|
--7----5----3----2-3-5--|--7----7------------7----|--10--------10--------|
--7----6----4-----------|--6-------------------6--|--11--------9---------|
------------------------|--7----7-----------------|--11--------11--------|
------------------------|--5----------------------|--9---------9---------|
------------------------|-------------------------|----------------------|


     G6                                              D            F#m/C#
-----0-----0---------------|----------------------|---------------------5h-7--|
-----3--3-------3--0-2-3-5-|--7----5----3----5----|--------3-5-3--------7-----|
-----0-------------0-2-4-6-|--7----6----4----6----|-----2------------2--------|
-----0---------------------|----------------------|--0------------------------|
---------------------------|----------------------|---------------4-----------|
--3------------------------|----------------------|---------------------------|


  Bm                          G6
--------7h9---9h10---9-----|-----------0----------|
--7-----7-----7---------8--|--------3-------------|
---------------------------|----------------------|
-----9---------------------|-----0----------------|
-----9---------------------|----------------------|
--7------------------------|--3-------------------|


  A7sus4      A7                D         F#m/C#
--10--10-10---9--------------|------------------5--7--|
--8---8--8----8--------------|------------------------|
--9---9--9----9--------------|------2--------2--------|
--7---7--7----7----------4-7-|--4---------------------|
---------------------4-5-----|------------4-----------|
-----------------------------|------------------------|


  Bm           Bm/A             G6
--------9--10--------9-------|-----------0------5--7--|
-----------------------7-----|--------3---------------|
------------------4------7---|-----0------------------|
---------------------------9-|------------------------|
-----9---------0-------------|------------------------|
--7--------------------------|--3---------------------|


  A7sus4                       D        F#m/C#      Bm       A7
--10--10------9----------0--|--2--------2--------|--2--------9---------|
--8------8----8------2/3----|--3--------2--------|--3--------8------3--|
--9--------9--9-------------|--2--------2--------|--4--------9---------|
--7-----------7-------------|--0--------4--------|--0--------7---------|
----------------------------|-----------4--------|--2------------------|
----------------------------|--------------------|---------------------|


  Dmaj7                  F#m       F#m7            G6
----------5------5----|--9---------12--------|-----0-----0---------------|
--7----7---------7----|--10--------10--------|-----3--3-------3--0-2-3-5-|
--6--------------6----|--11--------9---------|-----0-------------0-2-4-6-|
--7----7---------7----|--11--------11--------|-----0---------------------|
--5--------------5----|--9---------9---------|---------------------------|
----------------------|----------------------|--3------------------------|


                           Dmaj7                     F#m       F#m7
------------------------|----------5-----9p5------|--9---------12--------|
--7----5----3----2-3-5/-|--7----7------------7----|--10--------10--------|
--7----6----4-----------|--6-------------------6--|--11--------9---------|
------------------------|--7----7-----------------|--11--------11--------|
------------------------|--5----------------------|--9---------9---------|
------------------------|-------------------------|----------------------|


     G6                                              D            F#m/C#
-----0-----0---------------|----------------------|---------------------5h-7--|
-----3--3-------3--0-2-3-5-|--7----5----3----5----|--------3-5-3--------7-----|
-----0-------------0-2-4-6-|--7----6----4----6----|-----2------------2--------|
-----0---------------------|----------------------|--0------------------------|
---------------------------|----------------------|---------------4-----------|
--3------------------------|----------------------|---------------------------|


  Bm                          G6
--------7h9---9h10---9-----|-----------0----------|
--7-----7-----7---------8--|--------3-------------|
---------------------------|----------------------|
-----9---------------------|-----0----------------|
-----9---------------------|----------------------|
--7------------------------|--3-------------------|


  A7sus4      A7                D         F#m/C#
--10--10-10---9--------------|------------------5--7--|
--8---8--8----8--------------|------------------------|
--9---9--9----9--------------|------2--------2--------|
--7---7--7----7----------4-7-|--4---------------------|
---------------------4-5-----|------------4-----------|
-----------------------------|------------------------|


  Bm           Bm/A             G6
--------9--10--------9-------|-----------0------5--7--|
-----------------------7-----|--------3---------------|
------------------4------7---|-----0------------------|
---------------------------9-|------------------------|
-----9---------0-------------|------------------------|
--7--------------------------|--3---------------------|


  A7sus4                       D        F#m/C#      Bm       A7
--10--10------9----------0--|--2--------2--------|--2--------9---------|
--8------8----8------2/3----|--3--------2--------|--3--------8------3--|
--9--------9--9-------------|--2--------2--------|--4--------9---------|
--7-----------7-------------|--0--------4--------|--0--------7---------|
----------------------------|-----------4--------|--2------------------|
----------------------------|--------------------|---------------------|


  Em7                         A7
--7-----7--10------9---9---|--9---------7-------9--10--|
--8-----8--8-------10--10--|--10-----8----------8------|
--7-----7--7---------------|--9---9-------------9------|
--9------------------------|-----------------7---------|
--7--7---------------------|---------------------------|
---------------------------|---------------------------|


  D
--10-12-10---------------------------------------|--10-12-------------------|
-----------12---------------------10-12-10-------|----------------10--8--7--|
---------------9-11--11--11-12-11----------12-11-|--------------------------|
-------------------------------------------------|--------------------------|
-------------------------------------------------|--------------------------|
-------------------------------------------------|--------------------------|

----------10------9--10--|--9-----------------|
--8----8-----------------|-------8------------|
-------------------------|--------------------|
-------------------------|--------------------|
-------------------------|--------------------|
-------------------------|--------------------|


  D
--10-12-10---------------------------------------|----------------------|
-----------12---------------------10-12-10-------|----------------------|
---------------9-11--11--11-12-11----------12-11-|--7-9-7---------------|
-------------------------------------------------|----------------------|
-------------------------------------------------|----------------------|
-------------------------------------------------|----------------------|


  D            F#m/C#         Bm                          G6
---------------------5h-7--|--------7h9---9h10---9-----|-----------0----------|
--------3-5-3--------7-----|--7-----7-----7---------8--|--------3-------------|
-----2------------2--------|---------------------------|----------------------|
--0------------------------|-----9---------------------|-----0----------------|
---------------4-----------|-----9---------------------|----------------------|
---------------------------|--7------------------------|--3-------------------|


  A7sus4      A7                D         F#m/C#
--10--10-10---9--------------|------------------5--7--|
--8---8--8----8--------------|------------------------|
--9---9--9----9--------------|------2--------2--------|
--7---7--7----7----------4-7-|--4---------------------|
---------------------4-5-----|------------4-----------|
-----------------------------|------------------------|


  Bm           Bm/A             G6
--------9--10--------9-------|-----------0------5--7--|
-----------------------7-----|--------3---------------|
------------------4------7---|-----0------------------|
---------------------------9-|------------------------|
-----9---------0-------------|------------------------|
--7--------------------------|--3---------------------|


  A7sus4                       D            F#m/C#
--10--10------9----------0--|---------------------5h-7--|
--8------8----8------2/3----|--------3-5-3--------7-----|
--9--------9--9-------------|-----2------------2--------|
--7-----------7-------------|--0------------------------|
----------------------------|---------------4-----------|
----------------------------|---------------------------|


  Bm                          G6
--------7h9---9h10---9-----|-----------0----------|
--7-----7-----7---------8--|--------3-------------|
---------------------------|----------------------|
-----9---------------------|-----0----------------|
-----9---------------------|----------------------|
--7------------------------|--3-------------------|


  A7sus4      A7                D         F#m/C#
--10--10-10---9--------------|------------------5--7--|
--8---8--8----8--------------|------------------------|
--9---9--9----9--------------|------2--------2--------|
--7---7--7----7----------4-7-|--4---------------------|
---------------------4-5-----|------------4-----------|
-----------------------------|------------------------|


  Bm           Bm/A             G6
--------9--10--------9-------|-----------0------5--7--|
-----------------------7-----|--------3---------------|
------------------4------7---|-----0------------------|
---------------------------9-|------------------------|
-----9---------0-------------|------------------------|
--7--------------------------|--3---------------------|


  A7sus4                       D            F#m/C#
--10--10------9----------0--|---------------------5h-7--|
--8------8----8------2/3----|--------3-5-3--------7-----|
--9--------9--9-------------|-----2------------2--------|
--7-----------7-------------|--0------------------------|
----------------------------|---------------4-----------|
----------------------------|---------------------------|


  Bm                          G6
--------7h9---9h10---9-----|-----------0----------|
--7-----7-----7---------8--|--------3-------------|
---------------------------|----------------------|
-----9---------------------|-----0----------------|
-----9---------------------|----------------------|
--7------------------------|--3-------------------|


  A7sus4      A7                D         F#m/C#
--10--10-10---9--------------|------------------5--7--|
--8---8--8----8--------------|------------------------|
--9---9--9----9--------------|------2--------2--------|
--7---7--7----7----------4-7-|--4---------------------|
---------------------4-5-----|------------4-----------|
-----------------------------|------------------------|


  Bm           Bm/A             G6
--------9--10--------9-------|-----------0------5--7--|
-----------------------7-----|--------3---------------|
------------------4------7---|-----0------------------|
---------------------------9-|------------------------|
-----9---------0-------------|------------------------|
--7--------------------------|--3---------------------|


  A7sus4                       D            F#m/C#
--10--10------9----------0--|---------------------5h-7--|
--8------8----8------2/3----|--------3-5-3--------7-----|
--9--------9--9-------------|-----2------------2--------|
--7-----------7-------------|--0------------------------|
----------------------------|---------------4-----------|
----------------------------|---------------------------|


  Bm                          G6
--------7h9---9h10---9-----|-----------0----------|
--7-----7-----7---------8--|--------3-------------|
---------------------------|----------------------|
-----9---------------------|-----0----------------|
-----9---------------------|----------------------|
--7------------------------|--3-------------------|


  A7sus4      A7                D         F#m/C#
--10--10-10---9--------------|------------------5--7--|
--8---8--8----8--------------|------------------------|
--9---9--9----9--------------|------2--------2--------|
--7---7--7----7----------4-7-|--4---------------------|
---------------------4-5-----|------------4-----------|
-----------------------------|------------------------|


  Bm           Bm/A             G6
--------9--10--------9-------|-----------0------5--7--|
-----------------------7-----|--------3---------------|
------------------4------7---|-----0------------------|
---------------------------9-|------------------------|
-----9---------0-------------|------------------------|
--7--------------------------|--3---------------------|


  A7sus4                       D            F#m/C#
--10--10------9----------0--|---------------------5h-7--|
--8------8----8------2/3----|--------3-5-3--------7-----|
--9--------9--9-------------|-----2------------2--------|
--7-----------7-------------|--0------------------------|
----------------------------|---------------4-----------|
----------------------------|---------------------------|


  Bm                          G6
--------7h9---9h10---9-----|-----------0----------|
--7-----7-----7---------8--|--------3-------------|
---------------------------|----------------------|
-----9---------------------|-----0----------------|
-----9---------------------|----------------------|
--7------------------------|--3-------------------|


  A7sus4      A7                  D         F#m/C#
--10--10-10---9--------------||-------------------5--7--|
--8---8--8----8--------------||-------------------------|
--9---9--9----9--------------||*------2--------2--------|
--7---7--7----7----------4-7-||*--4---------------------|
---------------------4-5-----||-------------4-----------|
-----------------------------||-------------------------|


  Bm           Bm/A             G6
--------9--10--------9-------|-----------0------5--7--|
-----------------------7-----|--------3---------------|
------------------4------7---|-----0------------------|
---------------------------9-|------------------------|
-----9---------0-------------|------------------------|
--7--------------------------|--3---------------------|


  A7sus4                     2x
--10--10------9----------0---||
--8------8----8------2/3-----||
--9--------9--9-------------*||
--7-----------7-------------*||
-----------------------------||
-----------------------------||
		  

Full key step upFull key step up
Half key step upHalf key step up
Half key step downHalf key step down
Full key step downFull key step down
hide glossary

See also:

tabs Iron Maiden - Wasting Love tabs Iron Maiden - The Number Of The Beast tabs Bruce Dickinson - Tears Of The Dragon Solo tabs WhiteSnake - Is This Love tabs Iron Maiden - Phantom of the Opera tabs Iron Maiden - Run To The Hills
e-chords

Other versions:

tabs Ozzy Osbourne - Goodbye To Romance tabs Ozzy Osbourne - Goodbye To Romance (completa)
auto scroll beats size up size down change color hide chords drawings
tab show chords e-chords YouTube Clip e-chords hide all tabs e-chords go to top tab

share