Os Anônimos

Green Sleeves

Os Anônimos

tabs

by  TERCMORAES

save to print version add songbook text version e-mail correct tuner
chordsukulelecavacokeyboardtabbassdrumsharmonicaflute Guitar Pro
close

there isn't a video lesson for this song

chords

Green Sleeves

	  		 
E|----------|-------------0--1-0--|---------------------|----------------|------------| 
B|----------|----1----3-----------|----3----0--------0--|--1-------------|----0-------| 
G|-----2----|---------------------|------------0--2-----|------2-2--1-2--|-------1----| 
D|----------|---------------------|---------------------|----------------|----------2-| 
A|----------|----0--------3-------|----2----------------|--0-----3-------|------------| 
E|----------|---------------------|-------------3-------|----------------|----0-------| 
 


 
E|----------|-------------0--1-0--|---------------------|------------------|-----------| 
B|----------|----1----3-----------|----3----0--------0--|--1--0------------|-----------| 
G|-----2----|---------------------|------------0--2-----|---------2-1----1-|--2--------| 
D|----------|---------------------|---------------------|--------------4---|---------2-| 
A|----------|----0--------3-------|----2----------------|-0----------------|--0-3----0-| 
E|----------|---------------------|-------------3-------|-----------0------|-----------| 
 

 
E|---3--3---2---0--|--------------------|-----------------|------------| 
B|-----------------|---3----0--------0--|--1--------------|----0-------| 
G|-----------------|-----------0--2-----|------2-2--1-2---|-------1----| 
D|------2----------|--------------------|-----------------|----------2-| 
A|---3-------------|-----------2--------|--0-----3--------|------------| 
E|-----------------|---3----------------|-----------------|----0-------| 
 

E|---3--3---2---0----|-------------------|------------------|----------0---5-| 
B|-------------------|--3----0--------0--|--1--0------------|------1------5--| 
G|-------------------|----------0--2-----|---------2-1----0-|--2----------5--| 
D|------2------------|-------------------|--------------4---|----------------| 
A|---3---------------|----------2--------|--0---------------|--0-------0-----| 
E|-------------------|--3----------------|------------0-----|----------------| 
		  

See also:

tabs Emmerson Nogueira - Hotel California tabs Roupa Nova - Tema da vitória tabs Roupa Nova - Volta Pra Mim ( Acoustic version) tabs Dibob - 1x0eu tabs Cachorro Grande - O Dia de Amanhă tabs KLB - Ela năo está aqui ( solo )
e-chords

Other versions:

tabs Os Anônimos - Green Sleeves
auto scroll beats size up size down change color hide chords drawings
tab show chords e-chords YouTube Clip e-chords hide all tabs e-chords go to top tab

share