Opshop

Nothing Can Wait

Opshop

tabs

by  TAMAMOREIRA

save to print version add songbook text version e-mail correct tuner
chordsukulelecavacokeyboardtabbassdrumsharmonicaflute Guitar Pro
close

there isn't a video lesson for this song

chords

Nothing Can Wait

	  		Intro 
e|-----------------------------------| 
B|--14b16--12~--9b11--9~--7--5--12~--| 
G|-----------------------------------| 
D|-----------------------------------|  x2 
A|-----------------------------------| 
E|-----------------------------------| 

Verse 
e|------------------------------| 
B|------------------------------| 
G|---PM-------------------------| 
D|----9----------7h9--7h9-------| 
A|----7-------------------------| 
E|------------------------------| 


e|------------------------------| 
B|------------------------------| 
G|---14----16----18-------------|  x2 
D|-----x12---x8----x8------9----| 
A|---12----14----16--------7----| 
E|------------------------------| 

Bridge 
e|--------------------------------------------------------------------------| 
B|------------------------------------------7-----7-------------------------|  x2 
G|-------0----0-----------7----7----------7-----7---7---------5----5--------| 
D|-----0----0---0-------7----7---7------5-----5-------5-----7----7---7------| 
A|---7----7-------7---7----7-------7----------------------7----7-------7----| 
E|--------------------------------------------------------------------------| 

e|-----------------------------------| 
B|--14b16--12~--9b11--9~--7--5--12~--| 
G|-----------------------------------| 
D|-----------------------------------|  x2 
A|-----------------------------------| 
E|-----------------------------------| 

e|-----------------------------------| 
B|-----------------------------------| 
G|-----------------------------------| 
D|-----------------------------------| 
A|-----5--5h7--3h5--3/2--------------| 
E|---6---6----6----------------------| 

e|------------------------------| 
B|------------------------------| 
G|---PM-------------------------| 
D|----9----------7h9--7h9-------| 
A|----7-------------------------| 
E|------------------------------| 

e|------------------------------| 
B|------------------------------| 
D|---14----16----18-------------|  x2 
G|-----x12---x8----x8------9----| 
A|---12----14----16--------7----| 
E|------------------------------| 

e|--------------------------------------------------------------------------| 
B|------------------------------------------7-----7-------------------------|  x2 
G|-------0----0-----------7----7----------7-----7---7---------5----5--------| 
D|-----0----0---0-------7----7---7------5-----5-------5-----7----7---7------| 
A|---7----7-------7---7----7-------7----------------------7----7-------7----| 
E|--------------------------------------------------------------------------| 

e|-----------------------------------| 
B|--14b16--12~--9b11--9~--7--5--12~--| 
G|-----------------------------------| 
D|-----------------------------------| 
A|-----------------------------------| 
E|-----------------------------------| 

e|--------------------------------------------------------------------------------| 
B|--------------------------------------------------------------------------------| 
G|--------------------------------------------------------------------------------| 
D|--5---4---7------5--7--9-0---9-0-9-0--9-0----7--9----9-0---9-0-9-0--9-0--9-0--7-| 
A|--3---2---9------3--5--7-0---7-0-7-0--7-0----5--7----7-0---7-0-7-0--7-0--7-0--5-| 
E|--------------------------------------------------------------------------------| 

finish 
e|------------------------------| 
B|------------------------------| 
G|------------------------------| 
D|---5--4--7--------------------| 
A|---3--2--9--------------------| 
E|------------------------------| 



************************************ 

| b  Bend 
| ~  Vibrato 
| h  Hammer-on 
| x  Dead note 
| /  Slide up 
  

************************************ 
		  

See also:

tabs The Naked And Famous - No Way tabs Like A Storm - Never Surrender tabs The Naked And Famous - Young Blood tabs Opshop - Nothing Can Wait tabs The Naked And Famous - All Of This
e-chords

Other versions:

tabs Opshop - Nothing Can Wait
auto scroll beats size up size down change color hide chords drawings
tab show chords e-chords YouTube Clip e-chords hide all tabs e-chords go to top tab

share