Opeth

The Lines In My Hand

Opeth

tabs

by  ALEFFEDERICO

save to print version add songbook text version e-mail correct tuner
chordsukulelecavacokeyboardtabbassdrumsharmonicaflute Guitar Pro
close

there isn't a video lesson for this song

chords

The Lines In My Hand

	  		

Mikael (Fade in...) 
e|-------------------------------------------------------------------------| 
B|-3------5------3------5------3------5------3------5------3------5--------| 
G|---4------4------4------4------4------4------4------4------4------4------| Repeat a few times 
D|-----2------2------2------2------2------2------2------2------2------2----| 
A|-------------------------------------------------------------------------| 
E|-------------------------------------------------------------------------| 


Fredrik (Acoustic) 
e|-----10----7-9---5-5h7p5p0--4h5p4p0--------------------------| 
B|---12---0------------------------------3--------5----3-------| 
G|--x-----------------------------------------3/4----4----1----| 
D|-9-----------------------------------------------------------| x2 
A|-------------------------------------------------------------| 
E|-------------------------------------------------------------| 


Mikael 
e|---------------------------------------------------------------------------| 
B|-3------5------3------5------3------5------3------5------3------5-----3----| 
G|---4------4------4------4------4------4------4------4------4------4--------|  
D|-----2------2------2------2------2------2------2------2------2------2------| 
A|---------------------------------------------------------------------------| 
E|---------------------------------------------------------------------------| 


Solo 1 (Mikael) 
e|---------------------------------------10---------7-----7------------------------------| 
B|----------------------------------------------9-----9-8---9----6-8b9r8-6--/9-----------| 
G|-----13-----------14------16-16-\13---------7----------------6------------------/13----| 
D|---------------------------------------------------------------------------------------| 
A|-/11----------/12-----/14--------------------------------------------------------------| 
E|---------------------------------------------------------------------------------------| 


Fredrik (Acoustic) 
e|-----10----7-9---5-5h7p5p0--4h5p4p0--------------------------| 
B|---12---0------------------------------3--------5----3-------| 
G|--x-----------------------------------------3/4----4----1----| 
D|-9-----------------------------------------------------------| x2 
A|-------------------------------------------------------------| 
E|-------------------------------------------------------------| 


Mikael 
e|---------------------------------------------------------------------------| 
B|-3------5------3------5------3------5------3------5------3------5-----3----| 
G|---4------4------4------4------4------4------4------4------4------4--------|  
D|-----2------2------2------2------2------2------2------2------2------2------| 
A|---------------------------------------------------------------------------| 
E|---------------------------------------------------------------------------| 


Both 
e|-3-3-3--3---3---3----| 
B|-3-3-3--3---3---3----| 
G|-x-x-x--x---x---x----| 
D|-0-0-0--x---x---0----| x4 
A|--------1---3---2----| 
E|----------------3----| 

e|--------------------------------------------------------------------------| 
B|--------------------------------------------------------------------------| 
G|-13-13-13-13-13-13-13-13-13-13-13-13-13--10-10-9\7-7-7\3-3-5/6-5-3-3/6----| 
D|-x--x--x--x--x--x--x--x--x--x--x--x--x------------------------------------| x4 
A|-11-11-11-11-11-11-11-11-11-11-11-11-11-----------------------------------| 
E|-0--0--0--13-0--0--13-0--13-0--0--0--0------------------------------------| 

Fredrik (Weird phrasing but I think its correct) 
e|-18---------18-------------------------| 
B|----17------17------17--18------15-----| 
G|--------16------------------13---------| 
D|---------------------------------------| 
A|---------------------------------------| 
E|---------------------------------------| 

Outro - Both (Palm mute everything but the last six notes) 
e|-----------------------------------------------------------------------| 
B|-----------------------------------------------------------------------| 
G|-----------------------------------------------------------------------| 
D|-----------------------------------------------------------------------| x2 
A|-----------------------------------------------------------------------| 
E|-12-0-12--0-12-0--12-0-12--0-12-0--12-0-12--0-12-0--12-0-12--0-12-0----| 

e|-----------------------------------------------------------------------| 
B|-----------------------------------------------------------------------| 
G|-----------------------------------------------------------------------| 
D|-----------------------------------------------------------------------| 
A|-----------------------------------------------------------------------| 
E|-13-0-13--0-13-0--13-0-13--0-13-0--13-0-13--0-13-0--13-0-13--0-13-0----| 

e|-----------------------------------------------------------------------| 
B|-----------------------------------------------------------------------| 
G|-----------------------------------------------------------------------| 
D|-----------------------------------------------------------------------| 
A|-----------------------------------------------------------------------| 
E|-12-0-12--0-12-0--12-0-12--0-12-0--12-0-12--0-12-0--12-0-12--0-12-0----| 


Do not palm mute anything this time round 
e|-----------------------------------------------------------------------| 
B|-----------------------------------------------------------------------| 
G|-----------------------------------------------------------------------| 
D|-----------------------------------------------------------------------| x2 
A|-----------------------------------------------------------------------| 
E|-12-0-12--0-12-0--12-0-12--0-12-0--12-0-12--0-12-0--12-0-12--0-12-0----| 
  
e|-----------------------------------------------------------------------| 
B|-----------------------------------------------------------------------| 
G|-----------------------------------------------------------------------| 
D|-----------------------------------------------------------------------| 
A|-----------------------------------------------------------------------| 
E|-13-0-13--0-13-0--13-0-13--0-13-0--13-0-13--0-13-0--13-0-13--0-13-0----| 

e|----------------------------------------------------------------| 
B|----------------------------------------------------------------| 
G|----------------------------------------------------------------| 
D|----------------------------------------------------------------| 
A|----------------------------------------------------------------| 
E|-12-0-12--0-12-0--12-0-12--0-12-0--12-0-12--0-12-0--12-0-12\----| 


A keyboard plays this at the last bar but you might want someone to do it to add some depth to the end 
e|--7-7-7------------7-7-7------------7-7-7------------7-7-7\-----| 
B|--8-8-8------------8-8-8------------8-8-8------------8-8-8\-----| 
G|--9-9-9------------9-9-9------------9-9-9------------9-9-9\-----| 
D|--9-9-9------------9-9-9------------9-9-9------------9-9-9\-----| 
A|--7-7-7------------7-7-7------------7-7-7------------7-7-7\-----| 
E|----------------------------------------------------------------| 

************************************ 

| /   slide up 
| \   slide down 
| h   hammer-on 
| p   pull-off 
| ~   vibrato 
| +   harmonic 
| x   Mute note 
| b   Bend 
| pb  Pre-bend 
| br  Bend release 
| pbr Pre-bend release 
| brb Bend release bend 

************************************ 
		  

See also:

tabs Johnossi - Send More Money tabs Royal Republic - Baby tabs Royal Republic - Vicious tabs Sabaton - Resist And Bite tabs Opeth - Cusp Of Eternity tabs Opeth - The Lines In My Hand
e-chords

Other versions:

tabs Opeth - The Lines In My Hand
auto scroll beats size up size down change color hide chords drawings
tab show chords e-chords YouTube Clip e-chords hide all tabs e-chords go to top tab

share