One Less Reason

Love Song

One Less Reason

tabs

by  CARLLUZ

save to print version add songbook text version e-mail correct tuner
chordsukulelecavacokeyboardtabbassdrumsharmonicaflute Guitar Pro
close

there isn't a video lesson for this song

chords

Love Song

	  		(Tab Legend at bottom) 
Guitar 1 Rhythmic (C G C F A D) 
Guitar 2 Lead     (C G C F A D) 
Guitar 3 Clean    (C G C F A D) (Only at the Bridge and Solo) 

Intro ============================================================ 


Guitar 1 & 2 
D-------------------| 
A-7*~~-9*~~~~~~~~~~-| 
F-7*~~-9*~~~~~~~~~~-| 
C-------------------| 
G-------------------| 
C-------------------| 


Guitar 1 & 2 
D-----------------------------------------------------------------| 
A-----------------------------------------------------------------| 
F-----------------------------------------------------------------| 
C-2~~~-2-2-0-2~~~~~---------------2~~~-2-2-0-2~~~~~---------------| 
G-2~~~-2-2-0-2~~~~~---------------2~~~-2-2-0-2~~~~~---------------| 
C-2~~~-2-2-0-2~~~~~-0-2-5-2-0-2-3-2~~~-2-2-0-2~~~~~-0-2-5-2-0-2-3-| 


Guitar 1 & 2 
D-----------------------------------------------------------------| 
A-----------------------------------------------------------------| 
F-----------------------------------------------------------------| 
C-2~~~-2-2-0-2~~~~~---------------2~~~-2-2-0-2~~~~~---------------| 
G-2~~~-2-2-0-2~~~~~---------------2~~~-2-2-0-2~~~~~---------------| 
C-2~~~-2-2-0-2~~~~~-0-2-5-2-0-2-3-2~~~-2-2-0-2~~~~~-2-0-0-5-5-----| 


Verse============================================================= 


Guitar 1 
D-----------------------------------------------------------------| 
A-----------------------------------------------------------------| 
F-----------------------------------------------------------------| 
C-2~~~~~~~~~~~~~~~~~~~~~~~~~~~~~~~~~~~~~~~~~~~~~~~~~~~~~~~~~~~~~~-| 
G-2~~~~~~~~~~~~~~~~~~~~~~~~~~~~~~~~~~~~~~~~~~~~~~~~~~~~~~~~~~~~~~-| 
C-2~~~~~~~~~~~~~~~~~~~~~~~~~~~~~~~~~~~~~~~~~~~~~~~~~~~~~~~~~~~~~~-| 

Guitar 2 x4 
D-----------------------------------------------------------------| 
A-----------------------------------------------------------------| 
F-----4-4---------7-7-----------------4-4---------7-7-------------| 
C-2-2-----5-5-4-4-----5-5-4-4-7-7-2-2-----5-5-4-4-----5-5-4-4-7-7-| 
G-----------------------------------------------------------------| 
C-----------------------------------------------------------------| 
pm. . . . . . . . . . . . . . . . . . . . . . . . . . . . . . . . 


Pre Chorus======================================================== 

Guitar 1 
D-----------------------------------------------------------------| 
A-8~~~~~~~~~~~~~~~~~~~~~~~~~~~~~~-7~~~~~~~~~~~~~~~~~~~~~~~~~~~~~~-| 
F-9~~~~~~~~~~~~~~~~~~~~~~~~~~~~~~-7~~~~~~~~~~~~~~~~~~~~~~~~~~~~~~-| 
C-9~~~~~~~~~~~~~~~~~~~~~~~~~~~~~~-9~~~~~~~~~~~~~~~~~~~~~~~~~~~~~~-| 
G-----------------------------------------------------------------| 
C-----------------------------------------------------------------| 

Guitar 2 
D-----------------------------------------------------------------| 
A-----------------------------------------------------------------| 
F-----4-4---------7-7-----------------4-4---------7-7-------------| 
C-2-2-----5-5-4-4-----5-5-4-4-7-7-2-2-----5-5-4-4-----5-5-4-4-7-7-| 
G-----------------------------------------------------------------| 
C-----------------------------------------------------------------| 
pm. . . . . . . . . . . . . . . . . . . . . . . . . . . . . . . . 


Guitar 1 
D-----------------------------------------------------------------| 
A-----------------------------------------------------------------| 
F-7~~~~~~~~~~~~~~~~~~~~~~~~~~~~~~-9~~~~~~~~~~~~~~~~~~~~~~~~~~~~~~-| 
C-7~~~~~~~~~~~~~~~~~~~~~~~~~~~~~~-9~~~~~~~~~~~~~~~~~~~~~~~~~~~~~~-| 
G-5~~~~~~~~~~~~~~~~~~~~~~~~~~~~~~-7~~~~~~~~~~~~~~~~~~~~~~~~~~~~~~-| 
C-----------------------------------------------------------------| 

Guitar 2 
D-----------------------------------------------------------------| 
A-----------------------------------------------------------------| 
F-----4-4---------7-7-----------------4-4---------7-7-------------| 
C-2-2-----5-5-4-4-----5-5-4-4-7-7-2-2-----5-5-4-4-----5-5-4-4-7-7-| 
G-----------------------------------------------------------------| 
C-----------------------------------------------------------------| 
pm. . . . . . . . . . . . . . . . . . . . . . . . . . . . . . . . 


Guitar 1 
D-----------------------------------------------------------------| 
A-8~~~~~~~~~~~~~~~~~~~~~~~~~~~~~~-7~~~~~~~~~~~~~~~~~~~~~~~~~~~~~~-| 
F-9~~~~~~~~~~~~~~~~~~~~~~~~~~~~~~-7~~~~~~~~~~~~~~~~~~~~~~~~~~~~~~-| 
C-9~~~~~~~~~~~~~~~~~~~~~~~~~~~~~~-9~~~~~~~~~~~~~~~~~~~~~~~~~~~~~~-| 
G-----------------------------------------------------------------| 
C-----------------------------------------------------------------| 

Guitar 2 
D-----------------------------------------------------------------| 
A-----------------------------------------------------------------| 
F-----4-4---------7-7-----------------4-4---------7-7-------------| 
C-2-2-----5-5-4-4-----5-5-4-4-7-7-2-2-----5-5-4-4-----5-5-4-4-7-7-| 
G-----------------------------------------------------------------| 
C-----------------------------------------------------------------| 
pm. . . . . . . . . . . . . . . . . . . . . . . . . . . . . . . . 


Guitar 1 
D-----------------------------------------------------------------| 
A-----------------------------------------------------------------| 
F-7~~~~~~~~~~~~~~~~~~~~~~~~~~~~~~-9~~~~~~-9~~~~~~-9-9-9-9-9-9-9-9-| 
C-7~~~~~~~~~~~~~~~~~~~~~~~~~~~~~~-9~~~~~~-9~~~~~~-9-9-9-9-9-9-9-9-| 
G-5~~~~~~~~~~~~~~~~~~~~~~~~~~~~~~-7~~~~~~-7~~~~~~-7-7-7-7-7-7-7-7-| 
C-----------------------------------------------------------------| 

Guitar 2 
D-----------------------------------------------------------------| 
A-----------------------------------------------------------------| 
F-----4-4---------7-7-------------7-7-7-7-7-7-7-7-7-7-7-7-7-7-7-7-| 
C-2-2-----5-5-4-4-----5-5-4-4-7-7-7-7-7-7-7-7-7-7-7-7-7-7-7-7-7-7-| 
G---------------------------------5-5-5-5-5-5-5-5-5-5-5-5-5-5-5-5-| 
C-----------------------------------------------------------------| 
pm. . . . . . . . . . . . . . . . 


Chorus 1========================================================== 


Guitar 1 
D-----------------------------------------------------------------| 
A-----------------------------------------------------------------| 
F-5---5---5---5---5---5---5---5---5---5---5---5---5---5---5---5---| 
C-5---5---5---5---5---5---5---5---5---5---5---5---5---5---5---5---| 
G-3---3---3---3---3---3---3---3---3---3---3---3---3---3---3---3---| 
C-----------------------------------------------------------------| 

Guitar 2 
D-----------------------------------------------------------------| 
A-5---5---5---5---5---5---5---5---5---5---5---5---5~~~~~~-7~~~~~~-| 
F-x---x---x---x---x---x---x---x---x---x---x---x---x-------x-------| 
C-2---2---2---2---2---2---2---2---2---2---2---2---2~~~~~~-4~~~~~~-| 
G-----------------------------------------------------------------| 
C-----------------------------------------------------------------| 


Guitar 1 
D-----------------------------------------------------------------| 
A-----------------------------------------------------------------| 
F-----------------------------------------------------------------| 
C-2---2---2---2---2---2---2---2---2---2---2---2---2---2---2---2---| 
G-2---2---2---2---2---2---2---2---2---2---2---2---2---2---2---2---| 
C-2---2---2---2---2---2---2---2---2---2---2---2---2---2---2---2---| 

Guitar 2 
D-----------------------------------------------------------------| 
A-8---8---8---8---8---8---8---8---8---8---8---8---8~~~~~~-10~~~~~-| 
F-x---x---x---x---x---x---x---x---x---x---x---x---x-------x-------| 
C-5---5---5---5---5---5---5---5---5---5---5---5---5~~~~~~-7~~~~~~-| 
G-----------------------------------------------------------------| 
C-----------------------------------------------------------------| 


Guitar 1 
D-----------------------------------------------------------------| 
A-----------------------------------------------------------------| 
F-----------------------------------------------------------------| 
C-0---0---0---0---0---0---0---0---0---0---0---0---0---0---0---0---| 
G-0---0---0---0---0---0---0---0---0---0---0---0---0---0---0---0---| 
C-0---0---0---0---0---0---0---0---0---0---0---0---0---0---0---0---| 

Guitar 2 
D-----------------------------------------------------------------| 
A-7---7---7---7---7---7---7---7---7---7---7---7---7---7---7---7---| 
F-x---x---x---x---x---x---x---x---x---x---x---x---x---x---x---x---| 
C-4---4---4---4---4---4---4---4---4---4---4---4---4---4---4---4---| 
G-----------------------------------------------------------------| 
C-----------------------------------------------------------------| 


Guitar 1 
D-----------------------------------------------------------------| 
A-----------------------------------------------------------------| 
F-----------------------------------------------------------------| 
C-0---0---0---0---0---0---0---0---0---0---0---0---0---0---0---0---| 
G-0---0---0---0---0---0---0---0---0---0---0---0---0---0---0---0---| 
C-0---0---0---0---0---0---0---0---0---0---0---0---0---0---0---0---| 

Guitar 2 
D-----------------------------------------------------------------| 
A-12--12--12--12--12--12--12--12--10--10--10--10--7---7---7---7---| 
F-x---x---x---x---x---x---x---x---x---x---x---x---x---x---x---x---| 
C-9---9---9---9---9---9---9---9---7---7---7---7---4---4---4---4---| 
G-----------------------------------------------------------------| 
C-----------------------------------------------------------------| 


Guitar 1 
D-----------------------------------------------------------------| 
A-----------------------------------------------------------------| 
F-5---5---5---5---5---5---5---5---5---5---5---5---5---5---5---5---| 
C-5---5---5---5---5---5---5---5---5---5---5---5---5---5---5---5---| 
G-3---3---3---3---3---3---3---3---3---3---3---3---3---3---3---3---| 
C-----------------------------------------------------------------| 

Guitar 2 
D-----------------------------------------------------------------| 
A-8---8---8---8---8---8---8---8---8---8---8---8---8~~~~~~-10~~~~~-| 
F-x---x---x---x---x---x---x---x---x---x---x---x---x-------x-------| 
C-5---5---5---5---5---5---5---5---5---5---5---5---5~~~~~~-7~~~~~~-| 
G-----------------------------------------------------------------| 
C-----------------------------------------------------------------| 


Guitar 1 
D-----------------------------------------------------------------| 
A-----------------------------------------------------------------| 
F-----------------------------------------------------------------| 
C-2---2---2---2---2---2---2---2---2---2---2---2---2---2---2---2---| 
G-2---2---2---2---2---2---2---2---2---2---2---2---2---2---2---2---| 
C-2---2---2---2---2---2---2---2---2---2---2---2---2---2---2---2---| 

Guitar 2 
D-----------------------------------------------------------------| 
A-12--12--12--12--12--12--12--12--12--12--12--12--12~~~~~-13~~~~~-| 
F-x---x---x---x---x---x---x---x---x---x---x---x---x-------x-------| 
C-9---9---9---9---9---9---9---9---9---9---9---9---9~~~~~~-10~~~~~-| 
G-----------------------------------------------------------------| 
C-----------------------------------------------------------------| 


Guitar 1 
D-----------------------------------------------------------------| 
A-----------------------------------------------------------------| 
F-----------------------------------------------------------------| 
C-0---0---0---0---0---0---0---0---0---0---0---0---0---0---0---0---| 
G-0---0---0---0---0---0---0---0---0---0---0---0---0---0---0---0---| 
C-0---0---0---0---0---0---0---0---0---0---0---0---0---0---0---0---| 

Guitar 2 
D-----------------------------------------------------------------| 
A-10--10--10--10--10--10--10--10--10--10--10--10--10--10--10--10--| 
F-x---x---x---x---x---x---x---x---x---x---x---x---x---x---x---x---| 
C-7---7---7---7---7---7---7---7---7---7---7---7---7---7---7---7---| 
G-----------------------------------------------------------------| 
C-----------------------------------------------------------------| 


Guitar 1 
D-----------------------------------------------------------------| 
A-----------------------------------------------------------------| 
F-----------------------------------------------------------------| 
C-0---0---0---0---0---0---0---0---0---0---0---0---0---0---0---0---| 
G-0---0---0---0---0---0---0---0---0---0---0---0---0---0---0---0---| 
C-0---0---0---0---0---0---0---0---0---0---0---0---0---0---0---0---| 

Guitar 2 
D-----------------------------------------------------------------| 
A-12--12--12--12--12--12--12--12--10--10--10--10--7---7---7---7---| 
F-x---x---x---x---x---x---x---x---x---x---x---x---x---x---x---x---| 
C-9---9---9---9---9---9---9---9---7---7---7---7---4---4---4---4---| 
G-----------------------------------------------------------------| 
C-----------------------------------------------------------------| 


Verse========================================================= 


Guitar 1 
D-----------------------------------------------------------------| 
A-----------------------------------------------------------------| 
F-----------------------------------------------------------------| 
C-2~~~~~~~~~~~~~~~~~~~~~~~~~~~~~~~~~~~~~~~~~~~~~~~~~~~~~~~~~~~~~~-| 
G-2~~~~~~~~~~~~~~~~~~~~~~~~~~~~~~~~~~~~~~~~~~~~~~~~~~~~~~~~~~~~~~-| 
C-2~~~~~~~~~~~~~~~~~~~~~~~~~~~~~~~~~~~~~~~~~~~~~~~~~~~~~~~~~~~~~~-| 

Guitar 2 x4 
D-----------------------------------------------------------------| 
A-----------------------------------------------------------------| 
F-----4-4---------7-7-----------------4-4---------7-7-------------| 
C-2-2-----5-5-4-4-----5-5-4-4-7-7-2-2-----5-5-4-4-----5-5-4-4-7-7-| 
G-----------------------------------------------------------------| 
C-----------------------------------------------------------------| 
pm. . . . . . . . . . . . . . . . . . . . . . . . . . . . . . . . 


Pre Chorus======================================================== 

Guitar 1 
D-----------------------------------------------------------------| 
A-8~~~~~~~~~~~~~~~~~~~~~~~~~~~~~~-7~~~~~~~~~~~~~~~~~~~~~~~~~~~~~~-| 
F-9~~~~~~~~~~~~~~~~~~~~~~~~~~~~~~-7~~~~~~~~~~~~~~~~~~~~~~~~~~~~~~-| 
C-9~~~~~~~~~~~~~~~~~~~~~~~~~~~~~~-9~~~~~~~~~~~~~~~~~~~~~~~~~~~~~~-| 
G-----------------------------------------------------------------| 
C-----------------------------------------------------------------| 

Guitar 2 
D-----------------------------------------------------------------| 
A-----------------------------------------------------------------| 
F-----4-4---------7-7-----------------4-4---------7-7-------------| 
C-2-2-----5-5-4-4-----5-5-4-4-7-7-2-2-----5-5-4-4-----5-5-4-4-7-7-| 
G-----------------------------------------------------------------| 
C-----------------------------------------------------------------| 
pm. . . . . . . . . . . . . . . . . . . . . . . . . . . . . . . . 


Guitar 1 
D-----------------------------------------------------------------| 
A-----------------------------------------------------------------| 
F-7~~~~~~~~~~~~~~~~~~~~~~~~~~~~~~-9~~~~~~~~~~~~~~~~~~~~~~~~~~~~~~-| 
C-7~~~~~~~~~~~~~~~~~~~~~~~~~~~~~~-9~~~~~~~~~~~~~~~~~~~~~~~~~~~~~~-| 
G-5~~~~~~~~~~~~~~~~~~~~~~~~~~~~~~-7~~~~~~~~~~~~~~~~~~~~~~~~~~~~~~-| 
C-----------------------------------------------------------------| 

Guitar 2 
D-----------------------------------------------------------------| 
A-----------------------------------------------------------------| 
F-----4-4---------7-7-----------------4-4---------7-7-------------| 
C-2-2-----5-5-4-4-----5-5-4-4-7-7-2-2-----5-5-4-4-----5-5-4-4-7-7-| 
G-----------------------------------------------------------------| 
C-----------------------------------------------------------------| 
pm. . . . . . . . . . . . . . . . . . . . . . . . . . . . . . . . 


Guitar 1 
D-----------------------------------------------------------------| 
A-8~~~~~~~~~~~~~~~~~~~~~~~~~~~~~~-7~~~~~~~~~~~~~~~~~~~~~~~~~~~~~~-| 
F-9~~~~~~~~~~~~~~~~~~~~~~~~~~~~~~-7~~~~~~~~~~~~~~~~~~~~~~~~~~~~~~-| 
C-9~~~~~~~~~~~~~~~~~~~~~~~~~~~~~~-9~~~~~~~~~~~~~~~~~~~~~~~~~~~~~~-| 
G-----------------------------------------------------------------| 
C-----------------------------------------------------------------| 

Guitar 2 
D-----------------------------------------------------------------| 
A-----------------------------------------------------------------| 
F-----4-4---------7-7-----------------4-4---------7-7-------------| 
C-2-2-----5-5-4-4-----5-5-4-4-7-7-2-2-----5-5-4-4-----5-5-4-4-7-7-| 
G-----------------------------------------------------------------| 
C-----------------------------------------------------------------| 
pm. . . . . . . . . . . . . . . . . . . . . . . . . . . . . . . . 


Guitar 1 
D-----------------------------------------------------------------| 
A-----------------------------------------------------------------| 
F-7~~~~~~~~~~~~~~~~~~~~~~~~~~~~~~-9~~~~~~-9~~~~~~-9-9-9-9-9-9-9-9-| 
C-7~~~~~~~~~~~~~~~~~~~~~~~~~~~~~~-9~~~~~~-9~~~~~~-9-9-9-9-9-9-9-9-| 
G-5~~~~~~~~~~~~~~~~~~~~~~~~~~~~~~-7~~~~~~-7~~~~~~-7-7-7-7-7-7-7-7-| 
C-----------------------------------------------------------------| 

Guitar 2 
D-----------------------------------------------------------------| 
A-----------------------------------------------------------------| 
F-----4-4---------7-7-------------7-7-7-7-7-7-7-7-7-7-7-7-7-7-7-7-| 
C-2-2-----5-5-4-4-----5-5-4-4-7-7-7-7-7-7-7-7-7-7-7-7-7-7-7-7-7-7-| 
G---------------------------------5-5-5-5-5-5-5-5-5-5-5-5-5-5-5-5-| 
C-----------------------------------------------------------------| 
pm. . . . . . . . . . . . . . . . 


Chorus 1========================================================== 


Guitar 1 
D-----------------------------------------------------------------| 
A-----------------------------------------------------------------| 
F-5---5---5---5---5---5---5---5---5---5---5---5---5---5---5---5---| 
C-5---5---5---5---5---5---5---5---5---5---5---5---5---5---5---5---| 
G-3---3---3---3---3---3---3---3---3---3---3---3---3---3---3---3---| 
C-----------------------------------------------------------------| 

Guitar 2 
D-----------------------------------------------------------------| 
A-5---5---5---5---5---5---5---5---5---5---5---5---5~~~~~~-7~~~~~~-| 
F-x---x---x---x---x---x---x---x---x---x---x---x---x-------x-------| 
C-2---2---2---2---2---2---2---2---2---2---2---2---2~~~~~~-4~~~~~~-| 
G-----------------------------------------------------------------| 
C-----------------------------------------------------------------| 


Guitar 1 
D-----------------------------------------------------------------| 
A-----------------------------------------------------------------| 
F-----------------------------------------------------------------| 
C-2---2---2---2---2---2---2---2---2---2---2---2---2---2---2---2---| 
G-2---2---2---2---2---2---2---2---2---2---2---2---2---2---2---2---| 
C-2---2---2---2---2---2---2---2---2---2---2---2---2---2---2---2---| 

Guitar 2 
D-----------------------------------------------------------------| 
A-8---8---8---8---8---8---8---8---8---8---8---8---8~~~~~~-10~~~~~-| 
F-x---x---x---x---x---x---x---x---x---x---x---x---x-------x-------| 
C-5---5---5---5---5---5---5---5---5---5---5---5---5~~~~~~-7~~~~~~-| 
G-----------------------------------------------------------------| 
C-----------------------------------------------------------------| 


Guitar 1 
D-----------------------------------------------------------------| 
A-----------------------------------------------------------------| 
F-----------------------------------------------------------------| 
C-0---0---0---0---0---0---0---0---0---0---0---0---0---0---0---0---| 
G-0---0---0---0---0---0---0---0---0---0---0---0---0---0---0---0---| 
C-0---0---0---0---0---0---0---0---0---0---0---0---0---0---0---0---| 

Guitar 2 
D-----------------------------------------------------------------| 
A-7---7---7---7---7---7---7---7---7---7---7---7---7---7---7---7---| 
F-x---x---x---x---x---x---x---x---x---x---x---x---x---x---x---x---| 
C-4---4---4---4---4---4---4---4---4---4---4---4---4---4---4---4---| 
G-----------------------------------------------------------------| 
C-----------------------------------------------------------------| 


Guitar 1 
D-----------------------------------------------------------------| 
A-----------------------------------------------------------------| 
F-----------------------------------------------------------------| 
C-0---0---0---0---0---0---0---0---0---0---0---0---0---0---0---0---| 
G-0---0---0---0---0---0---0---0---0---0---0---0---0---0---0---0---| 
C-0---0---0---0---0---0---0---0---0---0---0---0---0---0---0---0---| 

Guitar 2 
D-----------------------------------------------------------------| 
A-12--12--12--12--12--12--12--12--10--10--10--10--7---7---7---7---| 
F-x---x---x---x---x---x---x---x---x---x---x---x---x---x---x---x---| 
C-9---9---9---9---9---9---9---9---7---7---7---7---4---4---4---4---| 
G-----------------------------------------------------------------| 
C-----------------------------------------------------------------| 


Guitar 1 
D-----------------------------------------------------------------| 
A-----------------------------------------------------------------| 
F-5---5---5---5---5---5---5---5---5---5---5---5---5---5---5---5---| 
C-5---5---5---5---5---5---5---5---5---5---5---5---5---5---5---5---| 
G-3---3---3---3---3---3---3---3---3---3---3---3---3---3---3---3---| 
C-----------------------------------------------------------------| 

Guitar 2 
D-----------------------------------------------------------------| 
A-8---8---8---8---8---8---8---8---8---8---8---8---8~~~~~~-10~~~~~-| 
F-x---x---x---x---x---x---x---x---x---x---x---x---x-------x-------| 
C-5---5---5---5---5---5---5---5---5---5---5---5---5~~~~~~-7~~~~~~-| 
G-----------------------------------------------------------------| 
C-----------------------------------------------------------------| 


Guitar 1 
D-----------------------------------------------------------------| 
A-----------------------------------------------------------------| 
F-----------------------------------------------------------------| 
C-2---2---2---2---2---2---2---2---2---2---2---2---2---2---2---2---| 
G-2---2---2---2---2---2---2---2---2---2---2---2---2---2---2---2---| 
C-2---2---2---2---2---2---2---2---2---2---2---2---2---2---2---2---| 

Guitar 2 
D-----------------------------------------------------------------| 
A-12--12--12--12--12--12--12--12--12--12--12--12--12~~~~~-13~~~~~-| 
F-x---x---x---x---x---x---x---x---x---x---x---x---x-------x-------| 
C-9---9---9---9---9---9---9---9---9---9---9---9---9~~~~~~-10~~~~~-| 
G-----------------------------------------------------------------| 
C-----------------------------------------------------------------| 


Guitar 1 
D-----------------------------------------------------------------| 
A-----------------------------------------------------------------| 
F-----------------------------------------------------------------| 
C-0---0---0---0---0---0---0---0---0---0---0---0---0---0---0---0---| 
G-0---0---0---0---0---0---0---0---0---0---0---0---0---0---0---0---| 
C-0---0---0---0---0---0---0---0---0---0---0---0---0---0---0---0---| 

Guitar 2 
D-----------------------------------------------------------------| 
A-10--10--10--10--10--10--10--10--10--10--10--10--10--10--10--10--| 
F-x---x---x---x---x---x---x---x---x---x---x---x---x---x---x---x---| 
C-7---7---7---7---7---7---7---7---7---7---7---7---7---7---7---7---| 
G-----------------------------------------------------------------| 
C-----------------------------------------------------------------| 


Guitar 1 
D-----------------------------------------------------------------| 
A-----------------------------------------------------------------| 
F-----------------------------------------------------------------| 
C-0---0---0---0---0---0---0---0---0---0---0---0---0---0---0---0---| 
G-0---0---0---0---0---0---0---0---0---0---0---0---0---0---0---0---| 
C-0---0---0---0---0---0---0---0---0---0---0---0---0---0---0---0---| 

Guitar 2 
D-----------------------------------------------------------------| 
A-12--12--12--12--12--12--12--12--10--10--10--10--7---7---7---7---| 
F-x---x---x---x---x---x---x---x---x---x---x---x---x---x---x---x---| 
C-9---9---9---9---9---9---9---9---7---7---7---7---4---4---4---4---| 
G-----------------------------------------------------------------| 
C-----------------------------------------------------------------| 


Bridge============================================================ 


Guitar 1 
D----------------------------------------------------------------| 
A----------------------------------------------------------------| 
F----------------------------------------------------------------| 
C-2~~~~~~~~~~~~~~~~~~~~~~~~~~~~~~~~~~~~~~~~~~~~~~~~~~~~~~~~~~~~~-| 
G-2~~~~~~~~~~~~~~~~~~~~~~~~~~~~~~~~~~~~~~~~~~~~~~~~~~~~~~~~~~~~~-| 
C-2~~~~~~~~~~~~~~~~~~~~~~~~~~~~~~~~~~~~~~~~~~~~~~~~~~~~~~~~~~~~~-| 

Guitar 2 
D-3~~~~~~~~~~~~~~~~~~~~~~~~~~~~~~~~~~~~~~~~~~~~~~~~~~~~~~~~~~~~~-| 
A-5~~~~~~~~~~~~~~~~~~~~~~~~~~~~~~~~~~~~~~~~~~~~~~~~~~~~~~~~~~~~~-| 
F-3~~~~~~~~~~~~~~~~~~~~~~~~~~~~~~~~~~~~~~~~~~~~~~~~~~~~~~~~~~~~~-| 
C-2~~~~~~~~~~~~~~~~~~~~~~~~~~~~~~~~~~~~~~~~~~~~~~~~~~~~~~~~~~~~~-| 
G----------------------------------------------------------------| 
C----------------------------------------------------------------| 

Guitar 3 
D----------------------------------------------------------------| 
A-----------------7~~~~~~~~~~-8~~~~~~~~~~~~~~~~~~~~~~~~~~~~~~~~~-| 
F---------------------7~~~~~~~~~~-9~~~~~~~~~~~~~~~~~~~~~~~~~~~~~-| 
C----------------------------------------------------------------| 
G-7~~~~~~~~~~-7~~~~~~~~~~-7~~~~~~~~~~~~~~~~~~~~~~~~~~~~~~~~~~~~~-| 
C----------------------------------------------------------------| 


Guitar 2 
D-2~~~~~~~~~~~~~~~~~~~~~~~~~~~~~~~~~~~~~~~~~~~~~~~~~~~~~~~~~~~~~-| 
A-3~~~~~~~~~~~~~~~~~~~~~~~~~~~~~~~~~~~~~~~~~~~~~~~~~~~~~~~~~~~~~-| 
F-2~~~~~~~~~~~~~~~~~~~~~~~~~~~~~~~~~~~~~~~~~~~~~~~~~~~~~~~~~~~~~-| 
C-0~~~~~~~~~~~~~~~~~~~~~~~~~~~~~~~~~~~~~~~~~~~~~~~~~~~~~~~~~~~~~-| 
G----------------------------------------------------------------| 
C----------------------------------------------------------------| 

Guitar 3 
D----------------------------------------------------------------| 
A-----------------7~~~~~~~~~~-8~~-7~~~~~~~~~~~~~~~~~~~~~~~~~~~~~-| 
F---------------------7~~~~~~~~~~~~~~~~~~~~~~~~~~~~~~~~~~~~~~~~~-| 
C-0~~~~~~~~~~-0~~~~~~~~~~-0~~~~~~~~~~~~~~~~~~~~~~~~~~~~~~~~~~~~~-| 
G----------------------------------------------------------------| 
C----------------------------------------------------------------| 


Guitar 2 
D-3~~~~~~~~~~~~~~~~~~~~~~~~~~~~~~~~~~~~~~~~~~~~~~~~~~~~~~~~~~~~~-| 
A-3~~~~~~~~~~~~~~~~~~~~~~~~~~~~~~~~~~~~~~~~~~~~~~~~~~~~~~~~~~~~~-| 
F-5~~~~~~~~~~~~~~~~~~~~~~~~~~~~~~~~~~~~~~~~~~~~~~~~~~~~~~~~~~~~~-| 
C-5~~~~~~~~~~~~~~~~~~~~~~~~~~~~~~~~~~~~~~~~~~~~~~~~~~~~~~~~~~~~~-| 
G-3~~~~~~~~~~~~~~~~~~~~~~~~~~~~~~~~~~~~~~~~~~~~~~~~~~~~~~~~~~~~~-| 
C----------------------------------------------------------------| 

Guitar 3 
D----------------------------------------------------------------| 
A----------------------------------------------------------------| 
F---------------------12--11~~~~~~~~~~~~~~~~~~~~~~~~~~~~~~~~~~~~-| 
C-----------------------------12~~~~~~~~~~~~~~~~~~~~~~~~~~~~~~~~-| 
G----------------------------------------------------------------| 
C-10~~~~~~~~~~~~~~~~~~~~~~~~~~~~~~~~~~~~~~~~~~~~~~~~~~~~~~~~~~~~-| 


Guitar 2 
D-2~~~~~~~~~~~~~~~~~~~~~~~~~~~~~~~~~~~~~~~~~~~~~~~~~~~~~~~~~~~~~-| 
A-3~~~~~~~~~~~~~~~~~~~~~~~~~~~~~~~~~~~~~~~~~~~~~~~~~~~~~~~~~~~~~-| 
F-2~~~~~~~~~~~~~~~~~~~~~~~~~~~~~~~~~~~~~~~~~~~~~~~~~~~~~~~~~~~~~-| 
C-0~~~~~~~~~~~~~~~~~~~~~~~~~~~~~~~~~~~~~~~~~~~~~~~~~~~~~~~~~~~~~-| 
G----------------------------------------------------------------| 
C----------------------------------------------------------------| 

Guitar 3 
D----------------------------------------------------------------| 
A-----------------7~~~~~~-8p7-8~~~~~~~~~~~~~~~~~~~~~~~~~~~~~~~~~-| 
F---------------------7~~~~~~~~~~~~~~~~~~~~~~~~~~~~~~~~~~~~~~~~~-| 
C-0~~~~~~~~~~-0~~~~~~~~~~~~~~~~~~~~~~~~~~~~~~~~~~~~~~~~~~~~~~~~~-| 
G----------------------------------------------------------------| 
C----------------------------------------------------------------| 


Guitar 2 
D-3~~~~~~~~~~~~~~~~~~~~~~~~~~~~~~~~~~~~~~~~~~~~~~~~~~~~~~~~~~~~~-| 
A-5~~~~~~~~~~~~~~~~~~~~~~~~~~~~~~~~~~~~~~~~~~~~~~~~~~~~~~~~~~~~~-| 
F-3~~~~~~~~~~~~~~~~~~~~~~~~~~~~~~~~~~~~~~~~~~~~~~~~~~~~~~~~~~~~~-| 
C-2~~~~~~~~~~~~~~~~~~~~~~~~~~~~~~~~~~~~~~~~~~~~~~~~~~~~~~~~~~~~~-| 
G----------------------------------------------------------------| 
C----------------------------------------------------------------| 

Guitar 3 
D--------------------------------------------10~~~~~~~~~~~~~~~~~-| 
A-----------------7~~~~~~~~~~-8~~~~~~~~~~~~~~~~~~~~~~~~~~~~~~~~~-| 
F---------------------7~~~~~~~~~~-9~~~~~~~~~~~~~~~~~~~~~~~~~~~~~-| 
C----------------------------------------------------------------| 
G-7~~~~~~~~~~-7~~~~~~~~~~-7~~~~~~~~~~~~~~~~~~~~~~~~~~~~~~~~~~~~~-| 
C----------------------------------------------------------------| 


Guitar 2 
D-2~~~~~~~~~~~~~~~~~~~~~~~~~~~~~~~~~~~~~~~~~~~~~~~~~~~~~~~~~~~~~-| 
A-3~~~~~~~~~~~~~~~~~~~~~~~~~~~~~~~~~~~~~~~~~~~~~~~~~~~~~~~~~~~~~-| 
F-2~~~~~~~~~~~~~~~~~~~~~~~~~~~~~~~~~~~~~~~~~~~~~~~~~~~~~~~~~~~~~-| 
C-0~~~~~~~~~~~~~~~~~~~~~~~~~~~~~~~~~~~~~~~~~~~~~~~~~~~~~~~~~~~~~-| 
G----------------------------------------------------------------| 
C----------------------------------------------------------------| 

Guitar 3 
D--------------------------------------------5~~~~~~~~~~~~~~~~~~-| 
A-----------------7~~~~~~~~~~-8~~-7~~~~~~~~~~~~~~~~~~~~~~~~~~~~~-| 
F---------------------7~~~~~~~~~~~~~~~~~~~~~~~~~~~~~~~~~~~~~~~~~-| 
C-0~~~~~~~~~~-0~~~~~~~~~~-0~~~~~~~~~~~~~~~~~~~~~~~~~~~~~~~~~~~~~-| 
G----------------------------------------------------------------| 
C----------------------------------------------------------------| 


Guitar 2 
D-3~~~~~~~~~~~~~~~~~~~~~~~~~~~~~~~~~~~~~~~~~~~~~~~~~~~~~~~~~~~~~-| 
A-3~~~~~~~~~~~~~~~~~~~~~~~~~~~~~~~~~~~~~~~~~~~~~~~~~~~~~~~~~~~~~-| 
F-5~~~~~~~~~~~~~~~~~~~~~~~~~~~~~~~~~~~~~~~~~~~~~~~~~~~~~~~~~~~~~-| 
C-5~~~~~~~~~~~~~~~~~~~~~~~~~~~~~~~~~~~~~~~~~~~~~~~~~~~~~~~~~~~~~-| 
G-3~~~~~~~~~~~~~~~~~~~~~~~~~~~~~~~~~~~~~~~~~~~~~~~~~~~~~~~~~~~~~-| 
C----------------------------------------------------------------| 

Guitar 3 
D----------------------------------------------------------------| 
A----------------------------------------------------------------| 
F-----------------11~~~~~~~~~-12~~~~~~~~~~~~~~~~~~~~~~~~~~~~~~~~-| 
C---------------------10~~~~~~~~~~~~~~~~~~~~~~~~~~~~~~~~~~~~~~~~-| 
G----------------------------------------------------------------| 
C-10~~~~~~~~~-10~~~~~~~~~-10~~~~~~~~~~~~~~~~~~~~~~~~~~~~~~~~~~~~-| 


Guitar 1 
D----------------------------------------------------------------| 
A----------------------------------------------------------------| 
F----------------------------------------------------------------| 
C--------------------------------0---0---0---0---0---0---0---0---| 
G--------------------------------0---0---0---0---0---0---0---0---| 
C--------------------------------0---0---0---0---0---0---0---0---| 
pm                               .   .   .   .   .   .   .   . 

Guitar 2 
D-2~~~~~~~~~~~~~~~~~~~~~~~~~~~~~~~~~~~~~~~~~~~~~-----------------| 
A-3~~~~~~~~~~~~~~~~~~~~~~~~~~~~~~~~~~~~~~~~~~~~~-----------------| 
F-2~~~~~~~~~~~~~~~~~~~~~~~~~~~~~~~~~~~~~~~~~~~~~-----------------| 
C-0~~~~~~~~~~~~~~~~~~~~~~~~~~~~~~~~~~~~~~~~~~~~~-9\~~~~~~~~~~~~~-| 
G------------------------------------------------9\~~~~~~~~~~~~~-| 
C----------------------------------------------------------------| 

Guitar 3 
D----------------------------------------------------------------| 
A-----------------7~~~~~~~~~~-10~~~~~~~~~~~~~~~~~~~~~~~~~~~~~~~~-| 
F---------------------7~~~~~~~~~~~~~~~~~~~~~~~~~~~~~~~~~~~~~~~~~-| 
C-0~~~~~~~~~~-0~~~~~~~~~~-0~~~~~~~~~~~~~~~~~~~~~~~~~~~~~~~~~~~~~-| 
G----------------------------------------------------------------| 
C----------------------------------------------------------------| 


Guitar Solo====================================================== 


Guitar 1 
D----------------------------------------------------------------| 
A----------------------------------------------------------------| 
F----------------------------------------------------------------| 
C-2~~~~~~~~~~~~~~~~~~~~~~~~~~~~~~~~~~~~~~~~~~~~~~~~~~~~-2~~~~~~~-| 
G-2~~~~~~~~~~~~~~~~~~~~~~~~~~~~~~~~~~~~~~~~~~~~~~~~~~~~-2~~~~~~~-| 
C-2~~~~~~~~~~~~~~~~~~~~~~~~~~~~~~~~~~~~~~~~~~~~~~~~~~~~-2~~~~~~~-| 

Guitar 2 
D----------------------------------------------------------------| 
A----------------------------------------------------------------| 
F--------------------------------------------------------7---9---| 
C---------------------------------------9~~~~~~~~~~~-7-----------| 
G-7~~~~~~~~~~~~~~~-9---10~~~~~~~~~~~~~~--------------------------| 
C----------------------------------------------------------------| 

Guitar 3 
D----------------------------------------------------------------| 
A-----------------7~~~~~~~~~~-8~~~~~~~~~~~~~~-7~~~~~~~~~~~~~~~~~-| 
F---------------------7~~~~~~~~~~~~~~-7~~~~~~~~~~~~~~-7~~~~~~~~~-| 
C----------------------------------------------------------------| 
G-7~~~~~~~~~~-7~~~~~~~~~~-7~~~~~~~~~~~~~~~~~~~~~~~~~~~~~~-7~~~~~-| 
C----------------------------------------------------------------| 


Guitar 1 
D----------------------------------------------------------------| 
A----------------------------------------------------------------| 
F----------------------------------------------------------------| 
C-0~~~~~~~~~~~~~~~~~~~~~~~~~~~~~~~~~~~~~~~~~~~~~~~~~~~~-0~~~~~~~-| 
G-0~~~~~~~~~~~~~~~~~~~~~~~~~~~~~~~~~~~~~~~~~~~~~~~~~~~~-0~~~~~~~-| 
C-0~~~~~~~~~~~~~~~~~~~~~~~~~~~~~~~~~~~~~~~~~~~~~~~~~~~~-0~~~~~~~-| 

Guitar 2 
D----------------------------------------------------------------| 
A------------------7-----------8~~~~~~~~~~~~~~~~~~~~~~~~-7---8---| 
F-7~~~~~~~~~~~-7h9-----7---7-------------------------------------| 
C----------------------------------------------------------------| 
G----------------------------------------------------------------| 
C----------------------------------------------------------------| 
pm             . .     .   . 

Guitar 3 
D----------------------------------------------------------------| 
A-----------------7~~~~~~~~~~-8~~~~~~~~~~~~-7~~~~~~~~~~-7~~~8~~~-| 
F---------------------7~~~~~~~~~~~~~~~~-7~~~~~~~~~~-7~~~~~~~~~~~-| 
C-0~~~~~~~~~~-0~~~~~~~~~~-0~~~~~~~~-0~~~~~~~~~~~~~~~~~~~~~~~~~~~-| 
G----------------------------------------------------------------| 
C----------------------------------------------------------------| 


Guitar 1 
D----------------------------------------------------------------| 
A----------------------------------------------------------------| 
F-5~~~~~~~~~~~~~~~~~~~~~~~~~~~~~~~~~~~~~~~~~~~~~~~~~~~~-5~~~~~~~-| 
C-5~~~~~~~~~~~~~~~~~~~~~~~~~~~~~~~~~~~~~~~~~~~~~~~~~~~~-5~~~~~~~-| 
G-3~~~~~~~~~~~~~~~~~~~~~~~~~~~~~~~~~~~~~~~~~~~~~~~~~~~~-3~~~~~~~-| 
C----------------------------------------------------------------| 

Guitar 2 
D----------------------------------------------------------------| 
A-13~~~~~~~~~~~~~~~-12h13p12~~~~~~~~~~~~~~~~~~~-13--12h13p12-----| 
F------------------------------------------------------------12--| 
C----------------------------------------------------------------| 
G----------------------------------------------------------------| 
C----------------------------------------------------------------| 

Guitar 3 
D----------------------------------------------------------------| 
A----------------------------------------------------------------| 
F-----------------12~~~~~~------------------------12~~~~~~~~~~~~-| 
C---------10~~~~~~----12~~~~~~~~~---------10~~~~~~----12~~~~~~~~-| 
G-----10~~~~~-10~~~~~~~~~~~~~~~~~~~~~-10~~~~~-10~~~~~~~~~~~~~~~~-| 
C-10~~~~~~~~~~~~~~~~~~~~~~~~~~~~~-10~~~~~~~~~~~~~~~~~~~~~~~~~~~~-| 


Guitar 1 
D----------------------------------------------------------------| 
A----------------------------------------------------------------| 
F----------------------------------------------------------------| 
C-0~~~~~~~~~~~~~~~~~~~~~~~~~~~~~~~~~~~~~~~~~~~~~~~~~~~~-0~~~~~~~-| 
G-0~~~~~~~~~~~~~~~~~~~~~~~~~~~~~~~~~~~~~~~~~~~~~~~~~~~~-0~~~~~~~-| 
C-0~~~~~~~~~~~~~~~~~~~~~~~~~~~~~~~~~~~~~~~~~~~~~~~~~~~~-0~~~~~~~-| 

Guitar 2 
D----------------------------------------------------------------| 
A-------------------------------------------------------7/~~~~~~-| 
F-14~~~~~~~~~-----15----------17~~~~~~-----15~~~~\~~~~~----------| 
C-------------14------14--14-----------14------------------------| 
G----------------------------------------------------------------| 
C----------------------------------------------------------------| 
pm            .       .   . 

Guitar 3 
D----------------------------------------------------------------| 
A-----------------7~~~~~~~~~~-8~~~~~~~~~~~~-7~~~~~~~~~~-7~~-8~~~-| 
F---------------------7~~~~~~~~~~~~~~~~-7~~~~~~~~~~-7~~~~~~~~~~~-| 
C-0~~~~~~~~~~-0~~~~~~~~~~-0~~~~~~~~-0~~~~~~~~~~~~~~~~~~~~~~~~~~~-| 
G----------------------------------------------------------------| 
C----------------------------------------------------------------| 


Guitar 1 
D----------------------------------------------------------------| 
A----------------------------------------------------------------| 
F----------------------------------------------------------------| 
C-2~~~~~~~~~~~~~~~~~~~~~~~~~~~~~~~~~~~~~~~~~~~~~~~~~~~~-2~~~~~~~-| 
G-2~~~~~~~~~~~~~~~~~~~~~~~~~~~~~~~~~~~~~~~~~~~~~~~~~~~~-2~~~~~~~-| 
C-2~~~~~~~~~~~~~~~~~~~~~~~~~~~~~~~~~~~~~~~~~~~~~~~~~~~~-2~~~~~~~-| 

Guitar 2 (Finger tapping) 
D-------------------------------------------------| 
A-17t20p17p15h17t20p17p15h17t20p17p15h17t20p17p15h| 
F-------------------------------------------------| 
C-------------------------------------------------| 
G-------------------------------------------------| 
C-------------------------------------------------| 

Guitar 2 Continued 
D-------------------------------------------------| 
A-17t20p17p15h17t20p17p15h17t20p17p15h17t22p17p15h| 
F-------------------------------------------------| 
C-------------------------------------------------| 
G-------------------------------------------------| 
C-------------------------------------------------| 

Guitar 3 
D---------------------------------------------10~~~~~~~~~~~~~~~~-| 
A-----------------7~~~~~~~~~~-8~~~~~~~~~~-7~~~~~~~~~~~~~~~~~~~~~-| 
F---------------------7~~~~~~~~~~~~~~-7~~~~~~~~~~~~~~~~~~~~~~~~~-| 
C----------------------------------------------------------------| 
G-7~~~~~~~~~~-7~~~~~~~~~~-7~~~~~~~~~~~~~~~~~~~~~~~~~~~~~~~~~~~~~-| 
C----------------------------------------------------------------| 


Guitar 1 
D----------------------------------------------------------------| 
A----------------------------------------------------------------| 
F----------------------------------------------------------------| 
C-0~~~~~~~~~~~~~~~~~~~~~~~~~~~~~~~~~~~~~~~~~~~~~~~~~~~~-0~~~~~~~-| 
G-0~~~~~~~~~~~~~~~~~~~~~~~~~~~~~~~~~~~~~~~~~~~~~~~~~~~~-0~~~~~~~-| 
C-0~~~~~~~~~~~~~~~~~~~~~~~~~~~~~~~~~~~~~~~~~~~~~~~~~~~~-0~~~~~~~-| 

Guitar 2 
D-------------------------------------------------| 
A-17t22p17p15h17t22p17p15h17t22p17p15h17t22p17p15h| 
F-------------------------------------------------| 
C-------------------------------------------------| 
G-------------------------------------------------| 
C-------------------------------------------------| 

Guitar 2 Continued 
D---------------------------15h17-18b~~18~~-17-15-| 
A-17t22p17p15-19\~--------------------------------| 
F------------------14h16h17-----------------------| 
C-------------------------------------------------| 
G-------------------------------------------------| 
C-------------------------------------------------| 

Guitar 3 
D----------------------------------------------------------------| 
A-----------------7~~~~~~~~~~-8~~~~~~~~~~~~-7~~~~~~~~~~-7~~-8~~~-| 
F---------------------7~~~~~~~~~~~~~~~~-7~~~~~~~~~~-7~~~~~~~~~~~-| 
C-0~~~~~~~~~~-0~~~~~~~~~~-0~~~~~~~~-0~~~~~~~~~~~~~~~~~~~~~~~~~~~-| 
G----------------------------------------------------------------| 
C----------------------------------------------------------------| 


Guitar 1 
D----------------------------------------------------------------| 
A----------------------------------------------------------------| 
F-5~~~~~~~~~~~~~~~~~~~~~~~~~~~~~~~~~~~~~~~~~~~~~~~~~~~~-5~~~~~~~-| 
C-5~~~~~~~~~~~~~~~~~~~~~~~~~~~~~~~~~~~~~~~~~~~~~~~~~~~~-5~~~~~~~-| 
G-3~~~~~~~~~~~~~~~~~~~~~~~~~~~~~~~~~~~~~~~~~~~~~~~~~~~~-3~~~~~~~-| 
C----------------------------------------------------------------| 

Guitar 2 
D-19-15~~~~~------------------------19-15~~~~~-----------------------------| 
A------------17~~~~~-----15h17p15~~------------17~~~~~------15h17p15----15-| 
F--------------------16---------------------------------16-----------16----| 
C--------------------------------------------------------------------------| 
G--------------------------------------------------------------------------| 
C--------------------------------------------------------------------------| 

Guitar 3 
D----------------------------------------------------------------| 
A----------------------------------------------------------------| 
F-----------------12~~~~~~------------------------12~~~~~~~~~~~~-| 
C---------10~~~~~~----12~~~~~~~~~---------10~~~~~~----12~~~~~~~~-| 
G-----10~~~~~-10~~~~~~~~~~~~~~~~~~~~~-10~~~~~-10~~~~~~~~~~~~~~~~-| 
C-10~~~~~~~~~~~~~~~~~~~~~~~~~~~~~-10~~~~~~~~~~~~~~~~~~~~~~~~~~~~-| 


Guitar 1 
D----------------------------------------------------------------| 
A----------------------------------------------------------------| 
F----------------------------------------------------------------| 
C-0~~~~~~~~~~~~~~~~~~~~~~~~~~~~~~~~~~~~~~~~~~~~~~~~~~~~-0~~~~~~~-| 
G-0~~~~~~~~~~~~~~~~~~~~~~~~~~~~~~~~~~~~~~~~~~~~~~~~~~~~-0~~~~~~~-| 
C-0~~~~~~~~~~~~~~~~~~~~~~~~~~~~~~~~~~~~~~~~~~~~~~~~~~~~-0~~~~~~~-| 

Guitar 2 
D----------------------------------------------------------------| 
A----------------------------------------------------------------| 
F-16--14~~~~~~~~~-14~~~~~~~--14p-12--12p-11~~~~~~~~~~~--------9--| 
C------------------------------------------------------9--12-----| 
G----------------------------------------------------------------| 
C----------------------------------------------------------------| 

Guitar 3 
D----------------------------------------------------------------| 
A-----------------7~~~~~~~~~~-8~~~~~~~~~~~~-7~~~~~~~~~~-7~~-8~~~-| 
F---------------------7~~~~~~~~~~~~~~~~-7~~~~~~~~~~-7~~~~~~~~~~~-| 
C-0~~~~~~~~~~-0~~~~~~~~~~-0~~~~~~~~-0~~~~~~~~~~~~~~~~~~~~~~~~~~~-| 
G----------------------------------------------------------------| 
C----------------------------------------------------------------| 


Interlude======================================================== 


Guitar 1 
D----------------------------------------------------------------| 
A----------------------------------------------------------------| 
F----------------------------------------------------------------| 
C----------------------------------------------------------------| 
G-3~~~~~~~~~~~~~~~~~~~~~~~~~~~~~~~~~~~~~~~~~~~~~~~~~~~~~~~~~~~~~-| 
C----------------------------------------------------------------| 

Guitar 2 
D----------------------------------------------------------------| 
A----------------------------------------------------------------| 
F-9~~~~~~~~~~~~~~~~~~~~~~~~~~~~~~~~~~~~~~~~~~~~~~~~~~~~~~~~~~~~~-| 
C----------------------------------------------------------------| 
G----------------------------------------------------------------| 
C----------------------------------------------------------------| 


Chorus 2========================================================= 


Guitar 1 
D-----------------------------------------------------------------| 
A-----------------------------------------------------------------| 
F-5---5---5---5---5---5---5---5---5---5---5---5---5---5---5---5---| 
C-5---5---5---5---5---5---5---5---5---5---5---5---5---5---5---5---| 
G-3---3---3---3---3---3---3---3---3---3---3---3---3---3---3---3---| 
C-----------------------------------------------------------------| 

Guitar 2 
D-----------------------------------------------------------------| 
A-5---5---5---5---5---5---5---5---5---5---5---5---5~~~~~~-7~~~~~~-| 
F-x---x---x---x---x---x---x---x---x---x---x---x---x-------x-------| 
C-2---2---2---2---2---2---2---2---2---2---2---2---2~~~~~~-4~~~~~~-| 
G-----------------------------------------------------------------| 
C-----------------------------------------------------------------| 


Guitar 1 
D-----------------------------------------------------------------| 
A-----------------------------------------------------------------| 
F-----------------------------------------------------------------| 
C-2---2---2---2---2---2---2---2---2---2---2---2---2---2---2---2---| 
G-2---2---2---2---2---2---2---2---2---2---2---2---2---2---2---2---| 
C-2---2---2---2---2---2---2---2---2---2---2---2---2---2---2---2---| 

Guitar 2 
D-----------------------------------------------------------------| 
A-8---8---8---8---8---8---8---8---8---8---8---8---8~~~~~~-10~~~~~-| 
F-x---x---x---x---x---x---x---x---x---x---x---x---x-------x-------| 
C-5---5---5---5---5---5---5---5---5---5---5---5---5~~~~~~-7~~~~~~-| 
G-----------------------------------------------------------------| 
C-----------------------------------------------------------------| 


Guitar 1 
D-----------------------------------------------------------------| 
A-----------------------------------------------------------------| 
F-----------------------------------------------------------------| 
C-0---0---0---0---0---0---0---0---0---0---0---0---0---0---0---0---| 
G-0---0---0---0---0---0---0---0---0---0---0---0---0---0---0---0---| 
C-0---0---0---0---0---0---0---0---0---0---0---0---0---0---0---0---| 

Guitar 2 
D-----------------------------------------------------------------| 
A-7---7---7---7---7---7---7---7---7---7---7---7---7---7---7---7---| 
F-x---x---x---x---x---x---x---x---x---x---x---x---x---x---x---x---| 
C-4---4---4---4---4---4---4---4---4---4---4---4---4---4---4---4---| 
G-----------------------------------------------------------------| 
C-----------------------------------------------------------------| 


Guitar 1 
D-----------------------------------------------------------------| 
A-----------------------------------------------------------------| 
F-----------------------------------------------------------------| 
C-0---0---0---0---0---0---0---0---0---0---0---0---0---0---0---0---| 
G-0---0---0---0---0---0---0---0---0---0---0---0---0---0---0---0---| 
C-0---0---0---0---0---0---0---0---0---0---0---0---0---0---0---0---| 

Guitar 2 
D-----------------------------------------------------------------| 
A-12--12--12--12--12--12--12--12--10--10--10--10--7---7---7---7---| 
F-x---x---x---x---x---x---x---x---x---x---x---x---x---x---x---x---| 
C-9---9---9---9---9---9---9---9---7---7---7---7---4---4---4---4---| 
G-----------------------------------------------------------------| 
C-----------------------------------------------------------------| 


Guitar 1 
D-----------------------------------------------------------------| 
A-----------------------------------------------------------------| 
F-5---5---5---5---5---5---5---5---5---5---5---5---5---5---5---5---| 
C-5---5---5---5---5---5---5---5---5---5---5---5---5---5---5---5---| 
G-3---3---3---3---3---3---3---3---3---3---3---3---3---3---3---3---| 
C-----------------------------------------------------------------| 

Guitar 2 
D-----------------------------------------------------------------| 
A-8---8---8---8---8---8---8---8---8---8---8---8---8~~~~~~-10~~~~~-| 
F-x---x---x---x---x---x---x---x---x---x---x---x---x-------x-------| 
C-5---5---5---5---5---5---5---5---5---5---5---5---5~~~~~~-7~~~~~~-| 
G-----------------------------------------------------------------| 
C-----------------------------------------------------------------| 


Guitar 1 
D-----------------------------------------------------------------| 
A-----------------------------------------------------------------| 
F-----------------------------------------------------------------| 
C-2---2---2---2---2---2---2---2---2---2---2---2---2---2---2---2---| 
G-2---2---2---2---2---2---2---2---2---2---2---2---2---2---2---2---| 
C-2---2---2---2---2---2---2---2---2---2---2---2---2---2---2---2---| 

Guitar 2 
D-----------------------------------------------------------------| 
A-12--12--12--12--12--12--12--12--12--12--12--12--12~~~~~-13~~~~~-| 
F-x---x---x---x---x---x---x---x---x---x---x---x---x-------x-------| 
C-9---9---9---9---9---9---9---9---9---9---9---9---9~~~~~~-10~~~~~-| 
G-----------------------------------------------------------------| 
C-----------------------------------------------------------------| 


Guitar 1 
D-----------------------------------------------------------------| 
A-----------------------------------------------------------------| 
F-----------------------------------------------------------------| 
C-0---0---0---0---0---0---0---0---0---0---0---0---0---0---0---0---| 
G-0---0---0---0---0---0---0---0---0---0---0---0---0---0---0---0---| 
C-0---0---0---0---0---0---0---0---0---0---0---0---0---0---0---0---| 

Guitar 2 
D-----------------------------------------------------------------| 
A-10--10--10--10--10--10--10--10--10--10--10--10--10--10--10--10--| 
F-x---x---x---x---x---x---x---x---x---x---x---x---x---x---x---x---| 
C-7---7---7---7---7---7---7---7---7---7---7---7---7---7---7---7---| 
G-----------------------------------------------------------------| 
C-----------------------------------------------------------------| 


Guitar 1 
D-----------------------------------------------------------------| 
A-----------------------------------------------------------------| 
F-----------------------------------------------------------------| 
C-0---0---0---0---0---0---0---0---0---0---0---0---0---0---0---0---| 
G-0---0---0---0---0---0---0---0---0---0---0---0---0---0---0---0---| 
C-0---0---0---0---0---0---0---0---0---0---0---0---0---0---0---0---| 

Guitar 2 
D-----------------------------------------------------------------| 
A-12--12--12--12--12--12--12--12--10--10--10--10--7---7---7---7---| 
F-x---x---x---x---x---x---x---x---x---x---x---x---x---x---x---x---| 
C-9---9---9---9---9---9---9---9---7---7---7---7---4---4---4---4---| 
G-----------------------------------------------------------------| 
C-----------------------------------------------------------------| 

Guitar 1 
D-----------------------------------------------------------------| 
A-----------------------------------------------------------------| 
F-5---5---5---5---5---5---5---5---5---5---5---5---5---5---5---5---| 
C-5---5---5---5---5---5---5---5---5---5---5---5---5---5---5---5---| 
G-3---3---3---3---3---3---3---3---3---3---3---3---3---3---3---3---| 
C-----------------------------------------------------------------| 

Guitar 2 
D-----------------------------------------------------------------| 
A-5---5---5---5---5---5---5---5---5---5---5---5---5~~~~~~-7~~~~~~-| 
F-x---x---x---x---x---x---x---x---x---x---x---x---x-------x-------| 
C-2---2---2---2---2---2---2---2---2---2---2---2---2~~~~~~-4~~~~~~-| 
G-----------------------------------------------------------------| 
C-----------------------------------------------------------------| 


Guitar 1 
D-----------------------------------------------------------------| 
A-----------------------------------------------------------------| 
F-----------------------------------------------------------------| 
C-2---2---2---2---2---2---2---2---2---2---2---2---2---2---2---2---| 
G-2---2---2---2---2---2---2---2---2---2---2---2---2---2---2---2---| 
C-2---2---2---2---2---2---2---2---2---2---2---2---2---2---2---2---| 

Guitar 2 
D-----------------------------------------------------------------| 
A-8---8---8---8---8---8---8---8---8---8---8---8---8~~~~~~-10~~~~~-| 
F-x---x---x---x---x---x---x---x---x---x---x---x---x-------x-------| 
C-5---5---5---5---5---5---5---5---5---5---5---5---5~~~~~~-7~~~~~~-| 
G-----------------------------------------------------------------| 
C-----------------------------------------------------------------| 


Guitar 1 
D-----------------------------------------------------------------| 
A-----------------------------------------------------------------| 
F-----------------------------------------------------------------| 
C-0---0---0---0---0---0---0---0---0---0---0---0---0---0---0---0---| 
G-0---0---0---0---0---0---0---0---0---0---0---0---0---0---0---0---| 
C-0---0---0---0---0---0---0---0---0---0---0---0---0---0---0---0---| 

Guitar 2 
D-----------------------------------------------------------------| 
A-7---7---7---7---7---7---7---7---7---7---7---7---7---7---7---7---| 
F-x---x---x---x---x---x---x---x---x---x---x---x---x---x---x---x---| 
C-4---4---4---4---4---4---4---4---4---4---4---4---4---4---4---4---| 
G-----------------------------------------------------------------| 
C-----------------------------------------------------------------| 


Guitar 1 
D-----------------------------------------------------------------| 
A-----------------------------------------------------------------| 
F-----------------------------------------------------------------| 
C-0---0---0---0---0---0---0---0---0---0---0---0---0---0---0---0---| 
G-0---0---0---0---0---0---0---0---0---0---0---0---0---0---0---0---| 
C-0---0---0---0---0---0---0---0---0---0---0---0---0---0---0---0---| 

Guitar 2 
D-----------------------------------------------------------------| 
A-12--12--12--12--12--12--12--12--10--10--10--10--7---7---7---7---| 
F-x---x---x---x---x---x---x---x---x---x---x---x---x---x---x---x---| 
C-9---9---9---9---9---9---9---9---7---7---7---7---4---4---4---4---| 
G-----------------------------------------------------------------| 
C-----------------------------------------------------------------| 


Outro============================================================= 


Guitar 1 
D-----------------------------------------------------------------| 
A-----------------------------------------------------------------| 
F-----------------------------------------------------------------| 
C-2~~~-2-2-0-2~~~~~---------------2~~~-2-2-0-2~~~~~---------------| 
G-2~~~-2-2-0-2~~~~~---------------2~~~-2-2-0-2~~~~~---------------| 
C-2~~~-2-2-0-2~~~~~-0-2-5-2-0-2-3-2~~~-2-2-0-2~~~~~-0-2-5-2-0-2-3-| 

Guitar 2 
D-----------------------------------------------------------------| 
A-8~~~~~~~~~~~~~~~~~~~~~~~~~~~~~~~~~~~~~~~~~~~~~~~~~~~~~~~~~~~~~~-| 
F-x---------------------------------------------------------------| 
C-5~~~~~~~~~~~~~~~~~~~~~~~~~~~~~~~~~~~~~~~~~~~~~~~~~~~~~~~~~~~~~~-| 
G-----------------------------------------------------------------| 
C-----------------------------------------------------------------| 


Guitar 1 & 2 
D-----------------------------------------------------------------| 
A-----------------------------------------------------------------| 
F-----------------------------------------------------------------| 
C-2~~~-2-2-0-2~~~~~---------------2~~~-2-2-0-2~~~~~---------------| 
G-2~~~-2-2-0-2~~~~~---------------2~~~-2-2-0-2~~~~~---------------| 
C-2~~~-2-2-0-2~~~~~-0-2-5-2-0-2-3-2~~~-2-2-0-2~~~~~-2-0-0-5-5-----| 


Guitar 1 & 2 
D-----------------------------------------------------------------| 
A-----------------------------------------------------------------| 
F-----------------------------------------------------------------| 
C-----------------------------------------------------------------| 
G-----------------------------------------------------------------| 
C-----------------------------------------------------------------| 
		  

Full key step upFull key step up
Half key step upHalf key step up
Half key step downHalf key step down
Full key step downFull key step down
auto scroll beats size up size down change color hide chords drawings
tab show chords e-chords YouTube Clip e-chords hide all tabs e-chords go to top tab

share