One Bad Son

Vinyl Spin Burner

One Bad Son

tabs

by  DEIVCAVALCANTI

save to print version add songbook text version e-mail correct tuner
chordsukulelecavacokeyboardtabbassdrumsharmonicaflute Guitar Pro
close

there isn't a video lesson for this song

chords

Vinyl Spin Burner

	  		
Tuning: 1/2 step down? 

main riff 
e|---------------------------------------------------------| 
B|---------------------------------------------------------| 
G|---------------------------------------------------------| 
D|--------------------------------------------5---7--------| 
A|--5h7-7-7--5p0--------------5h7-7-7--5p0-----------------| 
E|----------------0h3-3h5p0-----------------0---0----------| 

e|-----------------------------------------------------------| 
B|-----------------------------------------------------------| 
G|-----------------------------------------------------------| 
D|--------------------------------------------5---7---5---7--| 
A|--5h7-7-7--5p0--------------5h7-7-7--5p0-------------------| 
E|----------------0h3-3h5p0-----------------0---0---0---0----| 

"let be what will be" 
e|-------------------------------------| 
B|-------------------------------------| 
G|--9-9-9-9------9-9-9-9-7-6-----------| 
D|--9-9-9-9------9-9-9-9-7-6-----------| 
A|--7-7-7-7------7-7-7-7-5-4-----------| 
E|-------------------------------------| 
"drop the needle... 
e|---------------------:-----------------------------------| 
B|---------------------:-----------------------------------| 
G|--5-5-5-5-7-7-7-7----:-----------------------------------| 
D|--5-5-5-5-7-7-7-7----:-------------------------9-9-9-----| 
A|--3-3-3-3-5-5-5-5----:--7-5-----------7-5------7-7-7-----| 
E|---------------------:------7-5-3-0--------7-5-----------| 

e|-----------------------------------------------------| 
B|-----------------------------------------------------| 
G|-----------------------------------------------------| 
D|---------------5--7--2-------------------------------| 
A|--7-5----------5--7--2-------------------------------| 
E|------7-5-3-0--3--5--0-------------------------------| 

solo 
e|----------------------------------------------------| 
B|----------------------------------------------------| 
G|----------------------------------------------------| 
D|--5-5-5-5--7-7-7-7--5-5-5-5--7-7-7-7--9-9-9-9-------| 
A|--5-5-5-5--7-7-7-7--5-5-5-5--7-7-7-7--9-9-9-9-------| 
E|--3-3-3-3--5-5-5-5--3-3-3-3--5-5-5-5--7-7-7-7-------| 

outro chords 
e|--------------------------------------------------------------------| 
B|--------------------------------------------------------------------| 
G|--------------------------------------------------------------------| 
D|---9-9-9-9--12-12-12-12--14-14-14-14-15-15-15-15-15-15-15--2--------| 
A|---7-7-7-7--10-10-10-10--12-12-12-12-13-13-13-13-13-13-13--2--------| 
E|-----------------------------------------------------------0--------| 
		  

See also:

tabs Billy Talent - Try Honesty tabs Rush - Tom Sawyer tabs Alanis Morissette - Are You Still Mad tabs Avril Lavigne - Forgotten tabs Alanis Morissette - Offer tabs Alanis Morissette - Not The Doctor
e-chords

Other versions:

tabs One Bad Son - Vinyl Spin Burner
auto scroll beats size up size down change color hide chords drawings
tab show chords e-chords YouTube Clip e-chords hide all tabs e-chords go to top tab

share