Oliver Tree

Waste Your Time Tab

Oliver Tree

Difficulty: nolevelnolevel

by aleffederico

tuner correct add songbook print version text version save to e-mail
chordsukulelecavacokeyboardtabbassdrumsharmonicsflute Guitar Pro
close

there isn't a video lesson for this song

request
chords

Waste Your Time

  		verse 1 

e|---------------------------------------------------------------------------| 
B|---------------------------------------------------------------------------| 
G|---------------------------------------------------------------------------| 
D|---------------------------------------------------------------------------| 
A|----4-5----4-5---0-4-5--0-4-5-----4-5---4-5---0-4-5--0-4-5-----------------| 
E|--3-----3-----------------------3-----3------------------------------------| 

e|---------------------------------------------------------------------------| 
B|---------------------------------------------------------------------------| 
G|---------------------------------------------------------------------------| 
D|---------------------------------------------------------------------------| 
A|----4-5----4-5---0-4-5--0-4-5-----4-5---4-5---0-4-5--0-4-5-----------------| 
E|--3-----3-----------------------3-----3------------------------------------| 

e|------------------------| 
B|------------------------| 
G|------------------------| 
D|-5----------------------| 
A|-5-x8-------------------| 
E|-3----------------------| 


Chorus 

e|---------------------------------------------------------------------------| 
B|---------------------------------------------------------------------------| 
G|---------------------------4-x-4-4-x-4--5-x-5-5-x-5------------------------| 
D|-2-x-2-2-x-2--5-x-5-5-x-5--4-x-4-4-x-4--5-x-5-5-x-5------------------------| 
A|-2-x-2-2-x-2--5-x-5-5-x-5--2-x-2-2-x-2--3-x-3-3-x-3------------------------| 
E|-0-x-0-0-x-0--3-x-3-3-x-3--------------------------------------------------| 

e|---------------------------------------------------------------------------| 
B|---------------------------------------------------------------------------| 
G|---------------------------4-x-4-4-x-4--5-x-5-5-x-5------------------------| 
D|-2-x-2-2-x-2--5-x-5-5-x-5--4-x-4-4-x-4--5-x-5-5-x-5------------------------| 
A|-2-x-2-2-x-2--5-x-5-5-x-5--2-x-2-2-x-2--3-x-3-3-x-3------------------------| 
E|-0-x-0-0-x-0--3-x-3-3-x-3--------------------------------------------------| 



Bridge 

e|---------------------------------------------------------------------------| 
B|---------------------------------------------------------------------------| 
G|-------------5-----4-------------------------------------------------------| 
D|-2-----5-----5-x8--4-x8----------------------------------------------------| 
A|-2-x8--5-x8--3-----2-------------------------------------------------------| 
E|-0-----3-------------------------------------------------------------------| 

e|---------------------------------------------------------------------------| 
B|---------------------------------------------------------------------------| 
G|-------------5-----4-------------------------------------------------------| 
D|-2-----5-----5-x8--4-x8----------------------------------------------------| 
A|-2-x8--5-x8--3-----2-------------------------------------------------------| 
E|-0-----3-------------------------------------------------------------------| 

verse 2 

e|---------------------------------------------------------------------------| 
B|---------------------------------------------------------------------------| 
G|---------------------------------------------------------------------------| 
D|---------------------------------------------------------------------------| 
A|----4-5----4-5---0-4-5--0-4-5-----4-5---4-5---0-4-5--0-4-5-----------------| 
E|--3-----3-----------------------3-----3------------------------------------| 

e|---------------------------------------------------------------------------| 
B|---------------------------------------------------------------------------| 
G|---------------------------------------------------------------------------| 
D|---------------------------------------------------------------------------| 
A|----4-5----4-5---0-4-5--0-4-5-----4-5---4-5---0-4-5--0-4-5-----------------| 
E|--3-----3-----------------------3-----3------------------------------------| 

e|------------------------| 
B|------------------------| 
G|------------------------| 
D|-5----------------------| 
A|-5-x8-------------------| 
E|-3----------------------| 


Chorus 

e|---------------------------------------------------------------------------| 
B|---------------------------------------------------------------------------| 
G|---------------------------4-x-4-4-x-4--5-x-5-5-x-5------------------------| 
D|-2-x-2-2-x-2--5-x-5-5-x-5--4-x-4-4-x-4--5-x-5-5-x-5------------------------| 
A|-2-x-2-2-x-2--5-x-5-5-x-5--2-x-2-2-x-2--3-x-3-3-x-3------------------------| 
E|-0-x-0-0-x-0--3-x-3-3-x-3--------------------------------------------------| 

e|---------------------------------------------------------------------------| 
B|---------------------------------------------------------------------------| 
G|---------------------------4-x-4-4-x-4--5-x-5-5-x-5------------------------| 
D|-2-x-2-2-x-2--5-x-5-5-x-5--4-x-4-4-x-4--5-x-5-5-x-5------------------------| 
A|-2-x-2-2-x-2--5-x-5-5-x-5--2-x-2-2-x-2--3-x-3-3-x-3------------------------| 
E|-0-x-0-0-x-0--3-x-3-3-x-3--------------------------------------------------| 
  
Outro 

e|---------------------------------------------------------------------------| 
B|---------------------------------------------------------------------------| 
G|---------------------------4-x-4-4-x-4--5-x-5-5-x-5------------------------| 
D|-2-x-2-2-x-2--5-x-5-5-x-5--4-x-4-4-x-4--5-x-5-5-x-5------------------------| 
A|-2-x-2-2-x-2--5-x-5-5-x-5--2-x-2-2-x-2--3-x-3-3-x-3------------------------| 
E|-0-x-0-0-x-0--3-x-3-3-x-3--------------------------------------------------| 

e|---------------------------------------------------------------------------| 
B|---------------------------------------------------------------------------| 
G|---------------------------4-x-4-4-x-4--5-x-5-5-x-5------------------------| 
D|-2-x-2-2-x-2--5-x-5-5-x-5--4-x-4-4-x-4--5-x-5-5-x-5------------------------| 
A|-2-x-2-2-x-2--5-x-5-5-x-5--2-x-2-2-x-2--3-x-3-3-x-3------------------------| 
E|-0-x-0-0-x-0--3-x-3-3-x-3--------------------------------------------------| 



e|----------------| 
B|----------------| 
G|-5--------4-----| x 4 
D|-5--5--2--4-----| 
A|-3--5--2--2-----| 
E|----3--0--------| 
 
	  

Search Paypal
auto scroll beats size up size down change color hide chords drawings
tab show chords e-chords YouTube Clip e-chords hide all tabs e-chords go to top tab

share with facebook