Oh Wonder

home > Oh Wonder

Drive Tab

Oh Wonder

Difficulty: nolevelnolevel

by fernsantana

tuner correct add songbook print version text version save to e-mail
chordsukulelecavacokeyboardtabbassdrumsharmonicsflute Guitar Pro
chords

Drive

Key:  Em More
Drive Key BmBm
Drive Key CmCm
Drive Key C#mC#m
Drive Key DmDm(one step down)
Drive Key D#mD#m(half step down)
Drive Key EmEm(original key)
Drive Key FmFm(half step up)
Drive Key F#mF#m(one step up)
Drive Key GmGm
Drive Key G#mG#m
Drive Key AmAm
Drive Key A#mA#m
  		
verse 1 
   
e|-------------------------|-------------------------|-------------------------|-------------------------| 
B|-------------------------|-------------------------|-------------------------|-1-----------0-----------| 
G|----0--------0--------0--|----0--------0--------0--|----0--------0--------0--|-------0--------0-----0--| 
D|-------2--------2--------|-------0--------0--------|-------2--------2--------|----2-----2--------2-----| 
A|-3--------3--------3-----|-2--------2--------2-----|-------------------------|-0-----------------------| 
E|-------------------------|-------------------------|-0--------0--------0-----|-------------------------| 

play Verse line 3x 


   before Chorus 
e|-------------------------|-------------------------|-------------------------|-0----0----0----0--0--| 
B|-------------------------|-------------------------|-------------------------|-1----1----1----0--0--| 
G|----0--------0--------0--|----0--------0--------0--|----0--------0--------0--|-0----0----0----0--0--| 
D|-------2--------2--------|-------0--------0--------|-------2--------2--------|-2----2----2----0--0--| 
A|-3--------3--------3-----|-2--------2--------2-----|-------------------------|-0----0----0----0--0--| 
E|-------------------------|-------------------------|-0--------0--------0-----|----------------------| 



Chorus 

e|-3--3--3--3--3-----3--3--|----3-----3-----3--3--3--|-3--3--3--3--3-----3--3--|----2-----2-----2--2--3-| 
B|-3--3--3--3--3-----3--3--|----3-----3-----3--3--3--|-3--3--3--3--3-----3--3--|----3-----3-----3--3--3-| 
G|-0--0--0--0--0-----0--0--|----0-----0-----0--0--0--|-0--0--0--0--0-----0--0--|----2-----2-----2--2--2-| 
D|-2--2--2--2--2-----2--2--|----0-----0-----0--0--0--|-2--2--2--2--2-----2--2--|----0-----0-----0--0--0-| 
A|-3--3--3--3--3-----3--3--|----2-----2-----2--0--0--|-2--2--2--2--2-----2--2--|----0-----0-----0--0--0-| 
E|-------------------------|-------------------------|-0--0--0--0--0-----0--0--|------------------------| 
   play 4x, then hold first chord briefly 



verse 2 

e|-------------------------|-------------------------|-------------------------|-------------------------| 
B|-------------------------|-------------------------|-------------------------|-1-----------0-----------| 
G|----0--------0--------0--|----0--------0--------0--|----0--------0--------0--|-------0--------0-----0--| 
D|-------2--------2--------|-------0--------0--------|-------2--------2--------|----2-----2--------2-----| 
A|-3--------3--------3-----|-2--------2--------2-----|-------------------------|-0-----------------------| 
E|-------------------------|-------------------------|-0--------0--------0-----|-------------------------| 

play Verse line 3x, 


   before Chorus 
e|-------------------------|-------------------------|-------------------------|-0----0----0----0--0--| 
B|-------------------------|-------------------------|-------------------------|-1----1----1----0--0--| 
G|----0--------0--------0--|----0--------0--------0--|----0--------0--------0--|-0----0----0----0--0--| 
D|-------2--------2--------|-------0--------0--------|-------2--------2--------|-2----2----2----0--0--| 
A|-3--------3--------3-----|-2--------2--------2-----|-------------------------|-0----0----0----0--0--| 
E|-------------------------|-------------------------|-0--------0--------0-----|----------------------| 



Chorus 2 

e|-3--3--3--3--3-----3--3--|----3-----3-----3--3--3--|-3--3--3--3--3-----3--3--|----2-----2-----2--2--3-| 
B|-3--3--3--3--3-----3--3--|----3-----3-----3--3--3--|-3--3--3--3--3-----3--3--|----3-----3-----3--3--3-| 
G|-0--0--0--0--0-----0--0--|----0-----0-----0--0--0--|-0--0--0--0--0-----0--0--|----2-----2-----2--2--2-| 
D|-2--2--2--2--2-----2--2--|----0-----0-----0--0--0--|-2--2--2--2--2-----2--2--|----0-----0-----0--0--0-| 
A|-3--3--3--3--3-----3--3--|----2-----2-----2--0--0--|-2--2--2--2--2-----2--2--|----0-----0-----0--0--0-| 
E|-------------------------|-------------------------|-0--0--0--0--0-----0--0--|------------------------| 
   play 4x 



Bridge 
      hold chords during vocals here    
e|-3------------------|-3-----------------|-3-----------------|-2------------------| 
B|-3------------------|-3-----------------|-3-----------------|-3------------------| 
G|-0------------------|-0-----------------|-0-----------------|-2------------------| play 2x 
D|-2------------------|-0-----------------|-2-----------------|-0------------------| 
A|-3------------------|-2-----------------|-2-----------------|-0------------------| 
E|--------------------|-3-----------------|-0-----------------|--------------------| 

e|-3----3----3-----3--3--|----3--3----3----3--3--|-3--3----3----3--3----|----2--2--2--2--2--2--3-| 
B|-3----3----3-----3--3--|----3--3----3----3--3--|-3--3----3----3--3----|----3--3--3--3--3--3--3-| 
G|-0----0----0-----0--0--|----0--0----0----0--0--|-0--0----0----0--0----|----2--2--2--2--2--2--2-| play 2x 
D|-2----2----2-----2--2--|----0--0----0----0--0--|-2--2----2----2--2----|----0--0--0--0--0--0--0-| 
A|-3----3----3-----3--3--|----2--2----2----2--2--|-2--2----2----2--2----|----0--0--0--0--0--0--0-| 
E|-----------------------|----3--3----3----3--3--|-0--0----0----0--0----|------------------------| 



Last Chorus 

e|-3------------------|-3-----------------|-3-----------------|-2------------------| 
B|-3------------------|-3-----------------|-3-----------------|-3------------------| 
G|-0------------------|-0-----------------|-0-----------------|-2------------------| play 2x 
D|-2------------------|-0-----------------|-2-----------------|-0------------------| with extra  
A|-3------------------|-2-----------------|-2-----------------|-0------------------| strums on last bar 
E|--------------------|-3-----------------|-0-----------------|--------------------| 



e|-3--3--3--3--3-----3--3--|----3-----3-----3--3--3--|-3--3--3--3--3-----3--3--|----2--2--2--2--2--2--3-| 
B|-3--3--3--3--3-----3--3--|----3-----3-----3--3--3--|-3--3--3--3--3-----3--3--|----3--3--3--3--3--3--3-| 
G|-0--0--0--0--0-----0--0--|----0-----0-----0--0--0--|-0--0--0--0--0-----0--0--|----2--2--2--2--2--2--2-| 
D|-2--2--2--2--2-----2--2--|----0-----0-----0--0--0--|-2--2--2--2--2-----2--2--|----0--0--0--0--0--0--0-| 
A|-3--3--3--3--3-----3--3--|----2-----2-----2--0--0--|-2--2--2--2--2-----2--2--|----0--0--0--0--0--0--0-| 
E|-------------------------|-------------------------|-0--0--0--0--0-----0--0--|------------------------| 
   play 3x 



Outro 
e|-3--3--3--3--3-----3--3--|----3-----3-----3--3--3--|-3--3--3--3--3-----3--3--|----2--2--2--2--2--2--2-| 
B|-3--3--3--3--3-----3--3--|----3-----3-----3--3--3--|-3--3--3--3--3-----3--3--|----3--3--3--3--3--3--3-| 
G|-0--0--0--0--0-----0--0--|----0-----0-----0--0--0--|-0--0--0--0--0-----0--0--|----2--2--2--2--2--2--2-| 
D|-2--2--2--2--2-----2--2--|----0-----0-----0--0--0--|-2--2--2--2--2-----2--2--|----0--0--0--0--0--0--0-| 
A|-3--3--3--3--3-----3--3--|----2-----2-----2--0--0--|-2--2--2--2--2-----2--2--|----0--0--0--0--0--0--0-| 
E|-------------------------|-------------------------|-0--0--0--0--0-----0--0--|------------------------| 
	  

Search Paypal
auto scroll beats size up size down change color hide chords drawings
tab show chords e-chords YouTube Clip e-chords hide all tabs e-chords go to top tab