Oficina G3

Perfeito Amor

Oficina G3

tabs Expert expert

by  RANIEL_G3

save to print version add songbook text version e-mail correct tuner
chordsukulelecavacokeyboardtabbassdrumsharmonicaflute Guitar Pro
close

there isn't a video lesson for this song

chords

Perfeito Amor

	  		(INTRODUÇÃO)    
   
           H     
E|------------------------|------------------------|    
B|------------------------|------------------------|    
G|-5/7--5-7-5--4-5-4------|--------5/7-9-5-4-------|    
D|-------------------7-5--|-5-7-8------------------|    
A|------------------------|------------------------|    
E|------------------------|------------------------|    
   
           H                  H.A.......    
E|------------------------|------------------------|    
B|------------------------|------------------------|    
G|------------------------|---------12---7---------|    
D|-7/8-7-8-7------7------8|---12-------------------|    
A|-------------10-----10--|------------------------|    
E|------------------------|------------------------|    
                                    H    
E|------------------------|------------------------|    
B|------------------------|------------------------|    
G|------------------------|------------------------|    
D|------------------------|-------2/3---2-3-2------|    
A|--5-7-8-7-5---5/7-3-5-3-|----------------3-------|    
E|------------8-----------|------------------------|    
   
base(G-Bb-F)------(Bb-F-Gm--F-Bb)D--D4    
    RIFF 2    
            
E|------------------------|------------------------|    
B|------------------------|------------------------|    
G|--2/4-4-5-4--5/7-5-7/5--|5--4-4--4-5-4-3-2-------|    
D|------------------------|------------------------|    
A|------------------------|------------------------|    
E|------------------------|------------------------|    
   
Refrão(F-Bb-D-C)    
   
SOLO PRINCIPAL    
                  H    
E|------------------------|------------------------|    
B|----------5-8-5-6-5-----|------------------------|    
G|--3-5-3-----------------|-7-5----5-4-------------|    
D|------------------------|-----7------------------|    
A|------------------------|------------------------|    
E|------------------------|------------------------|    
                    H    
E|------------------------|------------------------|    
B|------2-3-5---5-6-5-----|-----5------------------|    
G|-3-5--------------------|--7-----7--5---5/7------|    
D|------------------------|--------------------5/7-|    
A|------------------------|------------------------|    
E|------------------------|------------------------|    
        P                      H    
E|------------------------|------------------------|    
B|-----6-5-----5-6-8------|--5-6-5-----------------|    
G|-5--------7-------------|----------7--5/2--------|    
D|------------------------|------------------------|    
A|------------------------|------------------------|    
E|------------------------|------------------------|    
   
       P         H               
E|------------------------|------------------|    
B|------------------------|------------------|    
G|------------------------|------------------|    
D|--5-3-2-----2-3-5-------|-2/3/2------------|    
A|---------5--------------|--------5-3/1-----|    
E|------------------------|------------------|    
   
     
   
E    
E|-------------|------------|---------------|----8/10---|    
B|-----6-------|-8-----6----|-8------10-8---|-----------|    
G|--3----5-3---|----7----7--|----10---------|-----------|    
D|-------------|------------|---------------|-----------|    
A|-------------|------------|---------------|-----------|    
E|-------------|------------|---------------|-----------|    
      H           P       P        H             Bb    
E|-8-10-8--7-|--6-5--------------------------------1--|    
B|-----------|---------8--6-5-----5-6-5------------3--|    
G|-----------|------------------7---------7-5/2/3--3--|    
D|-----------|-------------------------------------3--|    
A|-----------|-------------------------------------1--| Voltar    
E|-----------|----------------------------------------| 

		  

Full key step upFull key step up
Half key step upHalf key step up
Half key step downHalf key step down
Full key step downFull key step down
hide glossary

See also:

tabs Aline Barros - sonda-me, usa-me tabs Lázaro - Eu Te Amo Tanto tabs Atmosfera de Adoração - Aleluia tabs Católicas - Ave Maria tabs Oficina G3 - Espelhos Magicos (solo) tabs Oficina G3 - Indiferença (acústico)
e-chords

Other versions:

tabs Oficina G3 - Perfeito Amor tabs Oficina G3 - Perfeito Amor (completa) tabs Oficina G3 - Perfeito Amor (ver.2)
auto scroll beats size up size down change color hide chords drawings
tab show chords e-chords YouTube Clip e-chords hide all tabs e-chords go to top tab

share