Oficina G3

Atitude

Oficina G3

tabs Beginner beginner

by  RANIEL_G3

save to print version add songbook text version e-mail correct tuner
chordsukulelecavacokeyboardtabbassdrumsharmonicaflute Guitar Pro
close

there isn't a video lesson for this song

chords

Atitude

Key:  Bb More
Atitude Key FF
Atitude Key F#F#
Atitude Key GG
Atitude Key G#G#(one step down)
Atitude Key AA(half step down)
Atitude Key BbBb(original key)
Atitude Key BB(half step up)
Atitude Key CC(one step up)
Atitude Key C#C#
Atitude Key DD
Atitude Key D#D#
Atitude Key EE
	  		Obs: Esta Música esta um tom abaixo da afinação normal. 
 
Intro 
 
d -----------1-1--3------------5-5-4-3------------------------------- 
A -----------1-1--3------------5-5-4-3------------------------------- 
F -----------3-3--5------------7-7-6-5------------------------------- 
C -----------3-3--5------------7-7-6-5------------------------------- 
G -----------1-1--3------------5-5-4-3------------------------------- 
D -0-1-1-2-3---------0-1-1-2-3--------------------------------------- 
                                       
d -----------1-1--3------------5-5-4-3~v-5--------------------------- 
A -----------1-1--3------------5-5-4-3---5--------------------------- 
F -----------3-3--5------------7-7-6-5---7--------------------------- 
C -----------3-3--5------------7-7-6-5---7--------------------------- 
G -----------1-1--3------------5-5-4-3---5--------------------------- 
D -0-1-1-2-3---------0-1-1-2-3--------------------------------------- 

		  

See also:

tabs Fernandinho - Seu Sangue tabs Vineyard Music - Me Derramar tabs Oficina G3 - Glória (instrumental) tabs Kleber Lucas - Nova criatura (ver.2) tabs André Valadão - Livre sou tabs Lázaro - Meu Mestre
e-chords

Other versions:

tabs Oficina G3 - Atitude tabs Raimundos - Atitude Severa tabs Ratos de Porão - Atitude Zero
auto scroll beats size up size down change color hide chords drawings
tab show chords e-chords YouTube Clip e-chords hide all tabs e-chords go to top tab

share