Oficina G3

Até quando?

Oficina G3

tabs Beginner beginner

by  BRUSIN

save to print version add songbook text version e-mail correct tuner
chordsukulelecavacokeyboardtabbassdrumsharmonicaflute Guitar Pro
close

there isn't a video lesson for this song

chords

Até quando?

	  		
Tuning: D G C F A D 



        Refrão da introdução   



-------------------------------------------------------------  
-------------------------------------------------------------  
-------------------------------------------------------------  
-----3-2----2-------------------------3--2---2---------------  
--2--1-0----0-----5------4-5--4-5--2--1--0---0--------5-----4  
--0-------3---3-0-3---0--2-3--2-3--0-------3----3--0--3--0--2  


           
-------------------------------------------------------------  
-------------------------------------------------------------  
-------------------------------------------------------------  
------------3------2-----------------------------3------2----  
--5--2--2---1-0----0--------5-----4--5--4--5--2--1--0---0----  
--3--0--0--------3----3--0--3--0--2--3--2--3--0-------3---3-0  



-------------------------------------------------------------  
-------------------------------------------------------------  
-------------------------------------------------------------  
-------------------------------------------------------------  
--5--------3----3----2---------------------------------------  
--3---0----1----1----0---------------------------------------  






           RIFF  VERSO 1    




-------------------------------------------------------------  
-------------------------------------------------------------  
-------------------------------------------------------------  
-----3-----2--------------------3-----2----------------------  
--2--1-0---0-----5---4-5--4-5-2-1-0---0-------5----4--5--2-2-  
--0------3---3-0-3-0-2-3--2-3-0-----3----3-0--3--0-2--3--0-0-  



-------------------------------------------------------------  
-------------------------------------------------------------  
-------------------------------------------------------------  
--3------2--------------------------3------2-----------------  
--1--0---0--------5-----4--5-4-5--2-1--0---0-----5-----4-5-2-  
-------3----3--0--3--0--2--3-2-3--0------3---3-0-3--0--2-3-0-  


           Refrão 1    
            


---3-3-------------------------------------------------------  
---3-3-------------------------------------------------------  
5--5-5--5/7-------------------------------5/9\7\5-xx5/7/9--7-  
5-------5/7--5--5-3-3--5-3--5-3---2--3-3-------------------7-  
3-------3/5--5--5-3-3--5-3--5-3---2--3-3--3/7\5\3-xx3/5/7--5-  
-------------3--3-1-1--3-1--3-1-xx0--1-1---------------------  


             
------------------------------------------------------------  
-------------------------------------------------------------  
-------------------------------------------------------------  
--5--5--3--3--2--3--3----------------------------------------  
--5--5--3--3--2--3--3----------------------------------------  
--3--3--1--1--0--1--1----------------------------------------  



        Refrão 2   



---3-3-------------------------------------------------------  
---3-3-------------------------------------------------------  
5--5-5--5/7-------------------------------5/9\7\5-xx5/7/9--7-  
5-------5/7--5--5-3-3--5-3--5-3---2--3-3-------------------7-  
3-------3/5--5--5-3-3--5-3--5-3---2--3-3--3/7\5\3-xx3/5/7--5-  
-------------3--3-1-1--3-1--3-1---0--1-1---------------------   



-------------------------------------------------------------  
-------------------------------------------------------------  
-------------------------------------5------------5----------  
--5---5---3--3--5--3--5--3-----------3------------3----------  
--5---5---3--3--5--3--5--3----3-3-3--------3-3-3-------------  
--3---3---1--1--3--1--3--1-----------------------------------  




---3-3-------------------------------------------------------  
---3-3-------------------------------------------------------  
5--5-5--5/7-------------------------------5/9\7\5-xx5/7/9--7-  
5-------5/7--5--5-3-3--5-3--5-3---2--3-3-------------------7-  
3-------3/5--5--5-3-3--5-3--5-3---2--3-3--3/7\5\3-xx3/5/7--5-  
-------------3--3-1-1--3-1--3-1---0--1-1---------------------  



-------------------------------------------------------------  
-------------------------------------------------------------  
-------------------------------------------------------------  
--5---5---3--3--5--3------3-3---5b6--3----3--3---------------  
--5---5---3--3--5--3--3-5-----5---------5--------5--3--------  
--3---3---1--1--3--1----------------------------------3--3h5-  





Interlúdio  1  


-----------------------------------5-------------------------  
-----------------------------------8b10r8b10-----------------  
-------------------------------------------------------------  
--5-7--5---------------------5-xx6-----------5-7-5-----------  
---------7-6-5-------5--5-3--5-xx6------------------7--6--5--  
---------------8-5-3-----------------------------------------  




-------------------------------------------------------------  
-------------------------------------------------------------  
-------------------------------------------------------------  
---------------------------5-7--5---------------------5xx6---  
---------2----3xx4xx5xx6-7--------7--6--5-------5-5-3-5xx6---  
8--5--3--0--0-1xx2xx3xx4-5----------------8-5-3--------------  



Interlúdio 2    


-------------------------------------------------------------  
-------------------------------------------------------------  
-------------------------------------------------------------  
-------------------------------------------------------------  
--3-3-2--3-3-2--3-3-2--3-3-2--3-3-2--3-3-2--3-3-2--3-3-2-----  
--1-1-0--1-1-0--1-1-0--1-1-0--1-1-0--1-1-0--1-1-0--1-1-0-----  



-------------------------------------------------------------  
-------------------------------------------------------------  
-------------------------------------------------------------  
---------2---------------------------------------------------  
---2-2-2-0-2-5--5-5-3--5-5-3--5-5-3---5-5-3---5-5-3---5-5-3--  
---0-0-0---0-3--3-3-1--3-3-1--3-3-1---3-3-1---3-3-1---3-3-1--  




-------------------------------------------------------------  
-------------------------------------------------------------  
-------------------------------------------------------------  
----------------------4-4----4-4-----------------------------  
-5-5-3--5-5-3--5-5-3--2-2-5--2-2-5---------------------------  
-3-3-1--3-3-1--3-3-1------3------3---------------------------  



Refrao 03    


---3-3-------------------------------------------------------  
---3-3-------------------------------------------------------  
5--5-5--5/7-------------------------------5/9\7\5-xx5/7/9--7-  
5-------5/7--5--5-3-3--5-3--5-3---2--3-3-------------------7-  
3-------3/5--5--5-3-3--5-3--5-3---2--3-3--3/7\5\3-xx3/5/7--5-  
-------------3--3-1-1--3-1--3-1---0--1-1---------------------   



-----------------------------------3--3----------------------  
-----------------------------------3--3----------------------  
--------------------------------5--5--5--5--7----------------  
--5-5-3-3--5--3-----------------5--------5--7--5-5--3-3--5-3-  
--5-5-3-3--5--3--5-3-3-5-3-3-5--3--------3--5--5-5--3-3--5-3-  
--3-3-1-1--3--1--3-1-1-3-1-1-3-----------------3-3--1-1--3-1-  



-------------------------------------------------------------  
-------------------------------------------------------------  
------------------------------------5/9\7\5xx5/7/9--7--------  
-------3-3---3h5--3---3-3---------------------------7--5--5--  
--3--5-----5--------5-----5-3-------3/7\5\3xx3/5\7--5--5--5--  
------------------------------5-3-5--------------------3--3--  



-------------------------------------------------------------  
-------------------------------------------------------------  
-------------------------------------------------------------  
--3--3--5-3--5--3--3-3-3-------------------------------------  
--3--3--5-3--5--3--3-3-3-2-----------------------------------  
--1--1--3-1--3--1--1-1-1-0-----------------------------------  


RIFF final       



-------------------------------------------------------------  
-------------------------------------------------------------  
-------------------------------------------------------------  
-----3-2----2-------------------------3--2---2---------------  
--2--1-0----0-----5------4-5--4-5--2--1--0---0--------5-----4  
--0-------3---3-0-3---0--2-3--2-3--0-------3----3--0--3--0--2  



-------------------------------------------------------------  
-------------------------------------------------------------  
-------------------------------------------------------------  
----------3-2----2----------------------3-----2--------------  
--5--2-2--1-0----0------5----4-5--2--2--1-0---0-----5---4-5--  
--3--0-0------3-----3-0-3--0-2-3--0--0------3---3-0-3-0-2-3--  



-------------------------------------------------------------  
-------------------------------------------------------------  
-------------------------------------------------------------  
-------------------------------------------------------------  
--4--5--5/4--5/4---3--3--3--2--------------------------------  
--2--3--3/2--3/2---1--1--1--0--------------------------------  

		  

See also:

tabs Atmosfera de Adoração - Aleluia tabs Fernandinho - Uma Nova História tabs Lázaro - Meu Mestre tabs Lázaro - Eu Te Amo Tanto tabs Oficina G3 - Espelhos Magicos (solo) tabs Fernanda Brum - Espírito Santo
e-chords

Other versions:

tabs Eros Biondini - Até Quando tabs Oficina G3 - Até Quando ? tabs Oficina G3 - Até Quando ? tabs Plebe Rude - Até Quando Esperar tabs Oficina G3 - Ate quando(ver.2) tabs Oficina G3 - Até quando?
auto scroll beats size up size down change color hide chords drawings
tab show chords e-chords YouTube Clip e-chords hide all tabs e-chords go to top tab

share