Oceansize

The Charm Offensive

Oceansize

tabs

by  LUCICAMARGO

save to print version add songbook text version e-mail correct tuner
chordsukulelecavacokeyboardtabbassdrumsharmonicaflute Guitar Pro
close

there isn't a video lesson for this song

chords

The Charm Offensive

	  		Riff 1 (Intro) 
d|---------------------------------------------------------------------------| 
A|--------10-------------8------------3-------------3--0---------------------| 
F|------------12------------10-----------5------2----------------------------| 
C|---------------------------------------------------------------------------| 
G|----12-------------10------------5-----------------------------------------| 
C|--0-------------0-------------0------------0-------------------------------| 

Another guitar plays this under Riff 1 with some strange effects on it. 
d|------------8-9-10-----------------8-9-10----------------------------------| 
A|---------------------------------------------------------------------------| 
F|---------------------------------------------------------------------------| 
C|---------------------------------------------------------------------------| 
G|---------------------------------------------------------------------------| 
C|---------------------------------------------------------------------------| 

Riff 2 (crunch riff) 
Wah 
d|---------------------------------------------------------------------------| 
A|---------------------------------------------------------------------------| 
F|---------------------------------------------------------------------------| 
C|-----------------3---x-x-x-x---3-------------------------------------------| 
G|----0---0--------3---x-x-x-x---3-------------------------------------------| 
C|----0---0----h3------x-x-x-x---3-------------------------------------------| 

Riff 2 tag 
Not so sure about this, it sounds ok. 
d|---------------------------------------------------------------------------| 
A|---------------------------------------------------------------------------| 
F|---------------------------------------------------------------------------| 
C|--------------5------------------------------------------------------------| 
G|-----5------------3--------------------------------------------------------| 
C|---------3-----------------------------------------------------------------| 

Riff 3 (preChorus) 
d|---------------------------------------------------------------------------| 
A|---------------------------------------------------------------------------| 
F|---------------------17----------------------------------------------------| 
C|---------------17--------15------------------------------------------------| 
G|----0---17---------15------------------------------------------------------| 
C|----0------15--------------------------------------------------------------| 

Riff 4 (Chorus) 
Delay and some other stuff, 
d|-------------------------------------0-----0-------------------------------| 
A|-----------3p1-----------1-----3---3-----1---------------------------------| 
F|----------------2p0----0-----0---5-----2-----------------------------------| 
C|---------------------3-----5-----------------------------------------------| 
G|---------------------------------------------------------------------------| 
C|---------------------------------------------------------------------------| 

Riff 4 alternate 
d|-------------------------------------0-----0-------------------------------| 
A|-----------3p1-----------1-----3---3-----1---------------------------------| 
F|----2-----------2p0----0-----0---5-----2-----------------------------------| 
C|--0---0--------------3-----5-----------------------------------------------| 
G|---------------------------------------------------------------------------| 
C|---------------------------------------------------------------------------| 

Riff 5 (near the end) 
d|------------------------------------------------------------------------------| 
A|------------------------------------------------------------------------------| 
F|------------------------------------------------------------------------------| 
C|---0-------------3---5----10---7----------------------------------------------| 
G|---0----5-3-0----3---5----10---7----------------------------------------------| 
C|---0----------5--3---5----10---7----------------------------------------------| 

Riff 5 harmony 
d|---------------------------------------------------------------------------| 
A|---------------------------------------------------------------------------| 
F|---------------------------------------------------------------------------| 
C|---0------------3---5----10---7--------------------------------------------| 
G|---0---8-7-5-0--3---5----10---7--------------------------------------------| 
C|---0------------3---5----10---7--------------------------------------------| 
		  

auto scroll beats size up size down change color hide chords drawings
tab show chords e-chords YouTube Clip e-chords hide all tabs e-chords go to top tab

share