Oceansize

New Pin

Oceansize

tabs

by  LUCICAMARGO

save to print version add songbook text version e-mail correct tuner
chordsukulelecavacokeyboardtabbassdrumsharmonicaflute Guitar Pro
close

there isn't a video lesson for this song

chords

New Pin

	  		Verse 

1|--------------------------------------| 
2|-----------7--------------------7-----| 
3|------3------7------------9-------7---| 
4|---3-----------9--------9-----------9-| 
5|-5--------------------7---------------| 
6|--------------------------------------| 


Chorus 
1|-----------| 
2|-----------| 
3|--7----6---| 
4|--5----4---| 
5|--5----4---|  x2 
6|--5----4---| 

1|-------------------| 
2|-------------------| 
3|--7---9---4--------| 
4|--5---9---2--------| 
5|--5---9---2--------| 
6|--5---7---2--------| 
		  

auto scroll beats size up size down change color hide chords drawings
tab show chords e-chords YouTube Clip e-chords hide all tabs e-chords go to top tab

share