Oceansize

Catalyst

Oceansize

tabs

by  LUCICAMARGO

save to print version add songbook text version e-mail correct tuner
chordsukulelecavacokeyboardtabbassdrumsharmonicaflute Guitar Pro
close

there isn't a video lesson for this song

chords

Catalyst

	  		

(Muted lower strings in time with the rhythm) 


00:37 

E |---------------------------------------------------| 
B |---------------------------------------------------| 
G |-11-11-11-xx-11-11-11-xx-11-11-11--14-14-14-14-16--| 
D |-x--x--x--xx-x--x--x--xx-x--x--x---x--x--x--x--x---| 
A |-9--9--9--xx-9--9--9--xx-9--9--9---12-12-12-12-14--| 
D |-0--0--0--xx-0--0--0--xx-0--0--0---0--0--0--0--0---| 

E |---------------------------------------------------| 
B |---------------------------------------------------| 
G |-12-12-12-xx-12-12-12-xx-12-12-12--14-14-14-14-16--| 
D |-x--x--x--xx-x--x--x--xx-x--x--x---x--x--x--x--x---| 
A |-10-10-10-xx-10-10-10-xx-10-10-10--12-12-12-12-14--| 
D |-0--0--0--xx-0--0--0--xx-0--0--0---0--0--0--0--0---| 

E |---------------------------------------------------| 
B |---------------------------------------------------| 
G |-11-11-11-xx-11-11-11-xx-11-11-11--14-14-14-14-16--| 
D |-x--x--x--xx-x--x--x--xx-x--x--x---x--x--x--x--x---| 
A |-9--9--9--xx-9--9--9--xx-9--9--9---12-12-12-12-14--| 
D |-0--0--0--xx-0--0--0--xx-0--0--0---0--0--0--0--0---| 

E |---------------------------------------------------| 
B |---------------------------------------------------| 
G |-12-12-12-xx-12-12-12-xx-12-12-12--14-14-14-14-16--| 
D |-x--x--x--xx-x--x--x--xx-x--x--x---x--x--x--x--x---| 
A |-10-10-10-xx-10-10-10-xx-10-10-10--12-12-12-12-14--| 
D |-0--0--0--xx-0--0--0--xx-0--0--0---0--0--0--0--0---| 

1:03 

E |------------------------------------------------------------------------------------------------------| 
B |------------------------------------------------------------------------------------------------------| 
G |-11-11-11-14-14-14-14-16--11-11-11-14-14-14-14-16--12-12-12--14-14-14-14-16--11-11-11-14-14-14-14-14--| 
D |-x--x--x--x--x--x--x--x---x--x--x--x--x--x--x--x----x--x--x---x--x--x--x--x--x--x--x--x--x--x--x--x---| 
A |-9--9--9--12-12-12-12-14--9--9--9--12-12-12-12-14--10-10-10--12-12-12-12-14--9--9--9--12-12-12-12-12--| 
D |-0--0--0--0--0--0--0--0---0--0--0--0--0--0--0--0----0--0--0---0--0--0--0--0--0--0--0--0--0--0--0--0---| 

E |------------------------------------------------------------------------------------------------------| 
B |------------------------------------------------------------------------------------------------------| 
G |-11-11-11-14-14-14-14-16--11-11-11-14-14-14-14-16--12-12-12--14-14-14-14-16--11-11-11-14-14-14-14-14--| 
D |-x--x--x--x--x--x--x--x---x--x--x--x--x--x--x--x----x--x--x---x--x--x--x--x--x--x--x--x--x--x--x--x---| 
A |-9--9--9--12-12-12-12-14--9--9--9--12-12-12-12-14--10-10-10--12-12-12-12-14--9--9--9--12-12-12-12-12--| 
D |-0--0--0--0--0--0--0--0---0--0--0--0--0--0--0--0----0--0--0---0--0--0--0--0--0--0--0--0--0--0--0--0---| 

1:27 

Vocals Start - "I awoke with a start today..." 
Sketchy on this part, but its around about this: 

E |--------------------------------------------------| 
B |--------------------------------------------------| 
G |----14------14----16--14--------------------------| 
D |-16------16----16---------16-15-15-14-14-14-17-17-| 
A |--------------------------------------------------| 
D |--------------------------------------------------| 

1:49 

E |--------------------------------------------------| 
B |--------------------------------------------------| 
G |-19-18----19-18----19-18--------------------------| 
D |-------16-------16-------15-15-14-14-14/17-17-16--| 
A |--------------------------------------------------| 
D |--------------------------------------------------| 

2:10 

"But I am so fearful of the future..." 

E |----------------------------------------------------------------------------------------| 
B |----------------------------------------------------------------------------------------| 
G |-11-11-11-14-14-14-14--11-11-11-14-14-14-14--r--11-11-14-14-14-14--11-11-11-14-14-14-14-| 
D |-x--x--x--x--x--x--x---x--x--x--x--x--x--x---r--x--x--x--x--x--x---x--x--x--x--x--x--x--| 
A |-9--9--9--12-12-12-12--9--9--9--12-12-12-12--r--9--9--12-12-12-12--9--9--9--12-12-12-12-| 
D |-0--0--0--0--0--0--0---0--0--0--0--0--0--0---r--0--0--0--0--0--0---0--0--0--0--0--0--0--| 

(r = rest/pause) 

2:32 

E |-------------------------| 
B |-------------------------| 
G |-----12-14--11-11--------| 
D |-----x--x---x--x---------| 
A |x-x--10/12--0--0---------| 
D |x-x--0--0---0--0---------| 

2:45 

E |-------------------------| 
B |-------------------------| 
G |-----12-14--11-11--------| 
D |-----x--x---x--x---------| 
A |x-x--10/12--0--0---------| 
D |x-x--0--0---0--0---------| 

E |------------------------------------------------------------------------------------------------------| 
B |------------------------------------------------------------------------------------------------------| 
G |-11-11-11-14-14-14-14-16--11-11-11-14-14-14-14-16--12-12-12--14-14-14-14-16--11-11-11-14-14-14-14-14--| 
D |-x--x--x--x--x--x--x--x---x--x--x--x--x--x--x--x----x--x--x---x--x--x--x--x--x--x--x--x--x--x--x--x---| 
A |-9--9--9--12-12-12-12-14--9--9--9--12-12-12-12-14--10-10-10--12-12-12-12-14--9--9--9--12-12-12-12-12--| 
D |-0--0--0--0--0--0--0--0---0--0--0--0--0--0--0--0----0--0--0---0--0--0--0--0--0--0--0--0--0--0--0--0---| 

E |------------------------------------------------------------------------------------------------------| 
B |------------------------------------------------------------------------------------------------------| 
G |-11-11-11-14-14-14-14-16--11-11-11-14-14-14-14-16--12-12-12--14-14-14-14-16--11-11-11-14-14-14-14-14--| 
D |-x--x--x--x--x--x--x--x---x--x--x--x--x--x--x--x----x--x--x---x--x--x--x--x--x--x--x--x--x--x--x--x---| 
A |-9--9--9--12-12-12-12-14--9--9--9--12-12-12-12-14--10-10-10--12-12-12-12-14--9--9--9--12-12-12-12-12--| 
D |-0--0--0--0--0--0--0--0---0--0--0--0--0--0--0--0----0--0--0---0--0--0--0--0--0--0--0--0--0--0--0--0---| 

3:11 

E |--------------------------------------------------| 
B |--------------------------------------------------| 
G |----14------14----16--14--------------------------| 
D |-16------16----16---------16-15-15-14-14-14-17-17-| 
A |--------------------------------------------------| 
D |--------------------------------------------------| 

3:32 

E |--------------------------------------------------| 
B |--------------------------------------------------| 
G |-19-18----19-18----19-18--------------------------| 
D |-------16-------16-------15-15-14-14-14/17-17-16--| 
A |--------------------------------------------------| 
D |--------------------------------------------------| 

3:52 

"But I am so fearful of the future..." 

E |----------------------------------------------------------------------------------------| 
B |----------------------------------------------------------------------------------------| 
G |-11-11-11-14-14-14-14--11-11-11-14-14-14-14--r--11-11-14-14-14-14--11-11-11-14-14-14-14-| 
D |-x--x--x--x--x--x--x---x--x--x--x--x--x--x---r--x--x--x--x--x--x---x--x--x--x--x--x--x--| 
A |-9--9--9--12-12-12-12--9--9--9--12-12-12-12--r--9--9--12-12-12-12--9--9--9--12-12-12-12-| 
D |-0--0--0--0--0--0--0---0--0--0--0--0--0--0---r--0--0--0--0--0--0---0--0--0--0--0--0--0--| 

(r = rest/pause) 

4:04 

E |----------------------------------------------------------------------------------------| 
B |----------------------------------------------------------------------------------------| 
G |-r--11-11-14-14-14-14--r--11-11-14-14-14-14--r--11-11-14-14-14-14--11-11-11-14-14-14-14-| 
D |-r--x--x--x--x--x--x---r--x--x--x--x--x--x---r--x--x--x--x--x--x---x--x--x--x--x--x--x--| 
A |-r--9--9--12-12-12-12--r--9--9--12-12-12-12--r--9--9--12-12-12-12--9--9--9--12-12-12-12-| 
D |-r--0--0--0--0--0--0---r--0--0--0--0--0--0---r--0--0--0--0--0--0---0--0--0--0--0--0--0--| 

(r = rest/pause) 

4:18 

E |----------------------------------------------------| 
B |----------------------------------------------------| 
G |-------------11-11--------11-11-------------11-11---| 
D |-------------x--x---------x--x--------------x--x----| 
A |-3--3-3-3-3--9--9--3-3----9--9--3--3-3-3-3--9--9----| 
D |-0--0-0-0-0--0--0--0-0----0--0--0--0-0-0-0--0--0----| 
   ---p.m----      -p.m-      ---p.m---- 
    
(p.m = palm mute) 

4:27 

E |-----------------------------------------------------------| 
B |-----------------------------------------------------------| 
G |-11-11--5--5-5-5-5--11-11--------11-11-5--5-5-5-5--11-11---| 
D |-x--x---x--x-x-x-x--x--x---------x--x--x--x-x-x-x--x--x----| 
A |-9--9---3--3-3-3-3--9--9--3-3----9--9--3--3-3-3-3--9--9----| 
D |-0--0---0--0-0-0-0--0--0--0-0----0--0--0--0-0-0-0--0--0----| 

4:38 

E |------------------------------------------------------------------------------| 
B |-10--10-10--9--9-7------10--10-10-9-9---10--10-10--9--9-7------10--10-10-9-9--| 
G |-------------------9-7-------------------------------------9-7----------------| 
D |------------------------------------------------------------------------------| 
A |------------------------------------------------------------------------------| 
D |------------------------------------------------------------------------------| 

E |-----------------------------------------------------------| 
B |-----------------------------------------------------------| 
G |-11-11--5--5-5-5-5--11-11-5-5----11-11-5--5-5-5-5--11-11---| 
D |-x--x---x--x-x-x-x--x--x--x-x----x--x--x--x-x-x-x--x--x----| 
A |-9--9---3--3-3-3-3--9--9--3-3----9--9--3--3-3-3-3--9--9----| 
D |-0--0---0--0-0-0-0--0--0--0-0----0--0--0--0-0-0-0--0--0----| 

E |------------------------------------------------------------------------------| 
B |-10--10-10--9--9-7------10--10-10-9-9---10--10-10--9--9-7------10--10-10-9-9--| 
G |-------------------9-7-------------------------------------9-7----------------| 
D |------------------------------------------------------------------------------| 
A |------------------------------------------------------------------------------| 
D |------------------------------------------------------------------------------| 

E |-----------------------------------------------------------| 
B |-----------------------------------------------------------| 
G |-11-11--5--5-5-5-5--11-11-5-5----11-11-5--5-5-5-5--11-11---| 
D |-x--x---x--x-x-x-x--x--x--x-x----x--x--x--x-x-x-x--x--x----| 
A |-9--9---3--3-3-3-3--9--9--3-3----9--9--3--3-3-3-3--9--9----| 
D |-0--0---0--0-0-0-0--0--0--0-0----0--0--0--0-0-0-0--0--0----| 

4:59 

E |-------------------------------------------------------------------------------| 
B |-----------------------------------------10--10-10--9--9-7------10--10-10-9-9--| 
G |-14--14-14-13-13-11-9-7--14-14-14-13-13---------------------9-7----------------| 
D |-x---x--x--x--x--x--x-x--x--x--x--x--x-----------------------------------------| 
A |-12--12-12-11-11-9--7-5--12-12-12-11-11----------------------------------------| 
D |-0---0--0--0--0--0--0-0--0--0--0--0--0-----------------------------------------| 

E |-----------------------------------------------------------| 
B |-----------------------------------------------------------| 
G |-11-11--5--5-5-5-5--11-11-5-5----11-11-5--5-5-5-5--11-11---| 
D |-x--x---x--x-x-x-x--x--x--x-x----x--x--x--x-x-x-x--x--x----| 
A |-9--9---3--3-3-3-3--9--9--3-3----9--9--3--3-3-3-3--9--9----| 
D |-0--0---0--0-0-0-0--0--0--0-0----0--0--0--0-0-0-0--0--0----| 

E |-----------------------------------------------------------------------------------| 
B |-----------------------------------------------------------------------------------| 
G |-14--14-14-13-13-11-9-7--14-14-14-13-13----14--14-14-13-13-11-9-7--14-14-14-13-13--| 
D |-x---x--x--x--x--x--x-x--x--x--x--x--x-----x---x--x--x--x--x--x-x--x--x--x--x--x---| 
A |-12--12-12-11-11-9--7-5--12-12-12-11-11----12--12-12-11-11-9--7-5--12-12-12-11-11--| 
D |-0---0--0--0--0--0--0-0--0--0--0--0--0-----0---0--0--0--0--0--0-0--0--0--0--0--0---| 

E |-----------------------------------------------------------| 
B |-----------------------------------------------------------| 
G |-11-11--5--5-5-5-5--11-11-5-5----11-11-5--5-5-5-5--11-11---| 
D |-x--x---x--x-x-x-x--x--x--x-x----x--x--x--x-x-x-x--x--x----| 
A |-9--9---3--3-3-3-3--9--9--3-3----9--9--3--3-3-3-3--9--9----| 
D |-0--0---0--0-0-0-0--0--0--0-0----0--0--0--0-0-0-0--0--0----| 

E |-----------------------------------------------------------------------------------| 
B |-----------------------------------------------------------------------------------| 
G |-14--14-14-13-13-11-9-7--14-14-14-13-13----14--14-14-13-13-11-9-7--14-14-14-13-13--| 
D |-x---x--x--x--x--x--x-x--x--x--x--x--x-----x---x--x--x--x--x--x-x--x--x--x--x--x---| 
A |-12--12-12-11-11-9--7-5--12-12-12-11-11----12--12-12-11-11-9--7-5--12-12-12-11-11--| 
D |-0---0--0--0--0--0--0-0--0--0--0--0--0-----0---0--0--0--0--0--0-0--0--0--0--0--0---| 

5:53 

E |------------------------------------------------------------------| 
B |------------------------------------------------------------------| 
G |-11-11-11-5-5-5--11-11-11-5-5-5---11-11-11-5-5-5--11-11-11-5-5-5--| 
D |-x--x--x--x-x-x--x--x--x--x-x-x---x--x--x--x-x-x--x--x--x--x-x-x--| 
A |-9--9--9--3-3-3--9--9--9--3-3-3---9--9--9--3-3-3--9--9--9--3-3-3--| 
D |-0--0--0--0-0-0--0--0--0--0-0-0---0--0--0--0-0-0--0--0--0--0-0-0--| 

E |-----------------------------------------------------------------------------------| 
B |-----------------------------------------------------------------------------------| 
G |-14--14-14-13-13-11-9-7--14-14-14-13-13-13--14--14-14-13-13-11-9-7--14-14-14-13-13--| 
D |-x---x--x--x--x--x--x-x--x--x--x--x--x--x---x---x--x--x--x--x--x-x--x--x--x--x--x---| 
A |-12--12-12-11-11-9--7-5--12-12-12-11-11-11--12--12-12-11-11-9--7-5--12-12-12-11-11--| 
D |-0---0--0--0--0--0--0-0--0--0--0--0--0--0---0---0--0--0--0--0--0-0--0--0--0--0--0---| 

E |------------------------------------------------------------------| 
B |------------------------------------------------------------------| 
G |-11-11-11-5-5-5--11-11-11-5-5-5---11-11-11-5-5-5--11-11-11-5-5-5--| 
D |-x--x--x--x-x-x--x--x--x--x-x-x---x--x--x--x-x-x--x--x--x--x-x-x--| 
A |-9--9--9--3-3-3--9--9--9--3-3-3---9--9--9--3-3-3--9--9--9--3-3-3--| 
D |-0--0--0--0-0-0--0--0--0--0-0-0---0--0--0--0-0-0--0--0--0--0-0-0--| 

E |------------------------------------------------------------------------------| 
B |-10--10-10--9--9-7------10--10-10-9-9---10--10-10--9--9-7------10--10-10-9-9--| 
G |-------------------9-7-------------------------------------9-7----------------| 
D |------------------------------------------------------------------------------| 
A |------------------------------------------------------------------------------| 
D |------------------------------------------------------------------------------| 
		  

auto scroll beats size up size down change color hide chords drawings
tab show chords e-chords YouTube Clip e-chords hide all tabs e-chords go to top tab

share