Oceans Ate Alaska

home > Oceans Ate Alaska

Clocks Tab

Oceans Ate Alaska

Difficulty: ExpertExpert

by sabrjoao

tuner correct add songbook print version text version save to e-mail
chordsukulelecavacokeyboardtabbassdrumsharmonicsflute Guitar Pro
chords

Clocks

  		Artist: Oceans Ate Alaska 
Song: Clocks 
Tunning: C# G# C# F# A# D# 


h
Intro 

|-------------------------------------13-12----12-15-----------| 
|------6--------------------6---------------13-----------------| 
|----7--------------------7------------------------------------| 
|--7--------------------7-----8--------------------------------| 
|--------------------------------------------------------------| 
|---------000-0-000-000----------0-0------------------000-000--| 
          ... . ... ...          . .                  ... ... 





|------------------------------------------------------------------| 
|-------------------6--------------------6--------------------6----| 
|-----------------7--------------------7--------------------2------| 
|---------------7--------------------8--------------------3--------| 
|------------------------------------------------------------------| 
|-000-0-000-000--------000-0-000-000--------0-0-0-000-000----------| 
  ... . ... ...        ... . ... ...        . . . ... ... 


--------------------------------------------------------------------| 
-----------------5-6-5---------------------6-------------------6----| 
---------------5-------------------------7-------------------7------| 
---------------------------------------7-------------------8--------| 
--------------------------------------------------------------------| 
-000-0-000-000-----------000-0-000-000-------000-0-000-000----------| 
 ... . ... ...           ... . ... ...       ... . ... ... 


----------------13-12-------------------12h13/15---| 
----------------------11-10-------10-11------------| 
---------------------------------------------------| 
---------------------------------------------------| 
----------------------------0--0-------------------| 
-0-0-0-000-000--------------0--0-------------------| 
 . . . ... ...              .  . 



Verse 

|----------------------------------------------------------------------------| 
|----------------------------------------------------------------------------| 
|----------------------------------------------------------------------------| 
|--------------------------10-8-7-8--8------12-------------------------------| 
|-8p0-0-8p0-0-7p0-0-7p0-0------------8-x8-12-x8--------------------------| 
|------------------------------------8------12------0-0--0-0--0-0--0-0--0000-| 
                                                    . .  . .  . .  . .  .... 


----------------------------| 
----------------------------| 
----------------------------| 
----------------------------| x2 
----------------------------| 
--0-0--0-0--0-0--0-0--0000--| 
  . .  . .  . .  . .  .... 


|-------------------------------------| 
|-------------------------------------| 
|-------------------------------------| 
|----------------------0-----0-----0--| 
|--0--0--0--0-0--x3--0-----0-----0--| 
|--1--1--1--1-1--------0-----0-----0--| 
   .  .  .  . .              . 


chorus 

|-------------------------------------------| 
|-------------------------------------------| 
|-------------------------------------------| 
|--8-------10-------0-------3-------5-------| x2 
|--8-x8--10-x8--0-x8--3-x4--5-x4--| 
|--8-------10-------0-------3-------5-------| 


|---------------------------------------------------------| 
|--11---------------------11------------------------------| 
|--14---------------------14------------------------------| 
|------------------------------------------------8--------| 
|------------------------------------------------8-x16--| 
|------0000-0--0-0-0-0-0------0000-0--0-0-0-0-0--8--------| 
       .... .  . . . . .      .... .  . . . . . 


---------------------------------------------------------| 
--11---------------------11------------------------------| 
--14---------------------14------------------------------| 
------------------------------------------------5--------| 
------------------------------------------------5-x16--| 
------0000-0--0-0-0-0-0------0000-0--0-0-0-0-0--5--------| 
       .... .  . . . . .      .... .  . . . . . 


|-----------------------------------------------------------------------------| 
|-----------------------------------------------------------------------------| 
|-----------------------------------------------------------------------------| 
|--------------------------10-8-7-8--------------------------10-8-7-8--8------| 
|-8p0-0-8p0-0-7p0-0-7p0-0------------8p0-0-8p0-0-7p0-0-7p0-0-----------8------|x8 
|----------------------------------------------------------------------8------| 




--------------------------------------------------| 
--------------------------------------------------| 
--------------------------------------------------| 
--12----------------------------------------------| 
--12-x8-----------------------------------------| 
--12-------0-0--0-0--0-0---0-0--0-0--0-0----0000--| 
           . .  . .  . .   . .  . .  . .    .... 

|---------------------------------------------------------| 
|---------------------------------------------------------| 
|---------------------------------------------------------| 
|--------------------------10-8-7-8--8-------12-----------| 
|--8p0-0-8p0-0-7p0-0-7p0-0-----------8-x8--12-x8------| 
|------------------------------------8-------12-----------| 



----------------------------------------------------------------------------------------| 
---------------------------------------------| ----------------10--------------------9--| 
----------------x -x6---------------x ------------------------------------------------| 
x6-------------------------------------------- play this end part, 4 times.-----------| 
----------------8 --------------------7 ------------------------------------------------| 
--0-0--0-0--0-0---------0-0--0-0--0-0---------------------------------------------------| 
  . .  . .  . .         . .  . .  . . 


----------------------------------------------------------------------------------| 
---------------------------------------| -------------10-----------------9--------| 
-------------x -x6------------x x6--------------------------------------------| x4 
-------------8------------------7 ------------------------------------------------| 
--0---0---0----------0---0---0----------------------------------------------------| 
  .   .   .          .   .   . 

|-----| 
|-----| 
|-----| 
|--0--| 
|--0--| 
|--0--| 


drum fill thingy:P 


|------------------------------------------------------------| 
|------------------------------------------------------------| 
|------------------------------------------------------------| 
|--------------------------------------------------7p0-10p0--| 
|--0--------------------0------------------8p0-7p0-----------| 
|--0---000---0-0-0-0----0---000---0-0-0-0--------------------| 
   .   ...   . . . .    .   ...   . . . . 

---------------------------------------------------------------| 
---------------------------------------------------------------| 
---------------------------------------------------------------| 
--------------------------------------------------7p0-10p0--0--| 
-----------------------0------------------8p0-7p0-----------0--| 
-0-0--0-0---0-0-0-0----0---000---0-0-0-0--------------------0--| 
            . . . .    .   ...   . . . . 

clean section (not too sure if its right) 


|--------------------------------------| 
|------6------6-----------6-----5-6-5--| 
|----7------7---7-------2--------------| 
|--7------8-------8---3------7---------| x12 
|--------------------------------------| 
|--------------------------------------| 


|--------------------| 
|--------------------| 
|--10--------9-------| 
|--x --x12-x-x4--| x6 
|--8 --------7-------| 
|--------------------| 



chorus 

|-------------------------------------------| 
|-------------------------------------------| 
|-------------------------------------------| 
|--8-------10-------0-------3-------5-------| x2 
|--8-x8--10-x8--0-x8--3-x4--5-x4--| 
|--8-------10-------0-------3-------5-------| 



|-------------------------| 
|--11---------------------| 
|--14---------------------| 
|-------------------------| 
|-------------------------| 
|------0000-0--0-0-0-0-0--| 
       .... .  . . . . . 


please rate and if there is anything wrong with the tab or you have any suggestions 
e-mail me. 

[email protected] 
	  

Full key step upFull key step up
Half key step upHalf key step up
Half key step downHalf key step down
Full key step downFull key step down
Search Paypal
auto scroll beats size up size down change color hide chords drawings
tab show chords e-chords YouTube Clip e-chords hide all tabs e-chords go to top tab