Nx Zero

home > Nx Zero

Vertigem Tab

Nx Zero

Difficulty: BeginnerBeginner

by jessgomes

tuner correct add songbook print version text version save to e-mail
chordsukulelecavacokeyboardtabbassdrumsharmonicsflute Guitar Pro
chords

Vertigem

	  (efeito - "delay") 
E |--11-------------| 
B |-----11----------| 
G |--------10--12---| 
D |-----------------| 
A |-----------------| 
E |-----------------| 

(pequena e unica "variação" que vai haver é o que esta abaixo) 

E |--11---------------15-| 
B |-----11--------13-----| 
G |--------10--12--------|   1x 
D |----------------------| 
A |----------------------| 
E |----------------------| 

(fica repetindo a outra parte até o inicio de "só rezo") 
	  

there isn't a video lesson for this song

request
Search Paypal
auto scroll beats size up size down change color hide chords drawings
tab show chords e-chords YouTube Clip e-chords hide all tabs e-chords go to top tab