Nx Zero

home > Nx Zero

razões de ser assim Tab

Nx Zero

Difficulty: EasyEasy

by Matt%2Dbm

tuner correct add songbook print version text version save to e-mail
chordsukulelecavacokeyboardtabbassdrumsharmonicsflute Guitar Pro
chords

razões de ser assim

	  Intro: C5  A5  G5  F5 



e|--------------------------------------------------------------- 
b|------0------------0------------0------------0----------0------ 
g|--0-5---5-0----0-5---5-0----0-5---5-0----0-5---5----0-5---5-0-- 
d|--------------------------------------------------------------- 
a|--------------------------------------------------------------- 
E|--------------------------------------------------------------- 


Quando entra a bateria a primeira guitarra fica assim 

Riff 1 
e|-----------15---- 
b|----------------- 
g|---5...---------- 
d|----5...--------- 
a|----------------- 
E|----------------- 


Riff 2                       Riff 3 

e|--8-----                   e|--5--------- 
b|---8----                   b|---5-------- 
g|----5--- 


e a segunda guitarra assim 

e|-----------3------------------------------------------------- 
b|------3------3---------------------0-----------0------------- 
g|----5---5------5-----4-5--4-5-----5--5-----0-5---5-0--------- 
d|------------------------------------------------------------- 
a|------------------------------------------------------------- 
E|------------------------------------------------------------- 


Guitarra 1 

e|--------------------------------------------------- 
b|--------------------------------------------------- 
g|-5--4------------10-9-7-----10-9-7----------------- 
d|-x--x--7-5--7-7--x--x-x--5--x--x-x--3-3--3-3--3---- 
a|-3--2--x-x--7-7--8--7-5--5--8--7-5--3-3--3-3--3---- 
E|-------5-3--5-5----------3----------1-1--0-0--1---- 


Guitarra 2 

Faz Riff 1 depois faz os acordes da introdução...não sei bem essa parte 
Um pouco antes de começar a cantar 

e|--------------- 
b|--------------- 
g|---5---4--9---- 
d|---x---x--x---- 
a|---3---2--7---- 
E|--------------- 

 C5                              Am  
Nao da mais prazer evitar o meu erro 
                                   G5          (A segunda guitarra fica no Riff 1) 
nao da mais prazer fingir nao ter medo 
                                  E5 
nao da mais prazer viver e nao sorrir... nao da mais 
   F5        C5 
prazer... 
                A5                 G5          E5 
Nao da pra dizer, me ensine a viver de algo bom, me 
         F5      C5 
faça sorrir.. 
               A5                      G5 
eu nao sei mais o que estou fazendo aqui, fatos fotos 
      F5                                  C5 
e desgraças, vou seguindo a minha estrada  
                       A5                       G5 
andando sobre os passos de alguem que nao sou eu, a 
                      F5                         D5 
rotina de um mundo, todos fazem parte, menos eu. 
                            F5              C5    
Nao sei por que {não sei pq} eu tento entender a razao da minha 
      B5   D5                           F5               C5  
existencia, nao sei por que {não sei pq} eu tento encontrar a 
B5          
minha...  

nesa parada faz issu, escutando da pra entender 

e|------------ 
b|------------ 
g|--5-4-5-4--- 
d|------------ 
a|------------ 
E|------------ 

Refrão: 

C5   G5      A5    F5 
Razão pra viver {uououooo} 
C5        G5      A5    F5         
Me diga o que fazer  
C5            G5   A5          F5       
Razão pra viveeeer, me diga o que fazer 
C5      G5     A5  
Se nada faz mudar 
          F5 
meu jeito de pensar 

Entra esse solo 

e|-------------------------------------------------------------------------------------- 
b|-------------------------------------------------------------------------------------- 
g|--5-5---10--9--10--9--3-3---10-9-10-12-10-9---5-5--10-9-9--10-12--10-9--10-9--5-5----- 
d|--x-x---x---x--x---x--x-x---x--x-x--x--x--x---x-x--x--x-x--x--x---x--x--x--x--x-x----- 
a|--3-3---8---7--8---7--5-5---8--7-8--10-8--7---3-3--8--7-7--8--10--8--7--8--7--3-3----- 
E|-------------------------------------------------------------------------------------- 

C5        Riff2  A5                G5      Riff3  F5       
Nao da pra dizer, me ensine a viver de algo bom... me 


e|--------- 
b|--------- 
g|--10----- 
d|--x------ 
a|--8------ 
E|--------- 

faça sorrir... 

Solo: 

e|------------------------------------------------------------------------ 
b|------------------------------------------------------------------------- Escutano da pra entender 
g|--5...-5-5-5-5-5-5-4-5-4-5-4-5-4-5---4/5--------10-10-----12-10-9-------- 
d|---5...------------------------------x-x-(2x)---x--x------x--x--x-(2x)---  
a|-------------------------------------2/3--------8--8------10-8--7-------- 
E|------------------------------------------------------------------------- 


Refrão: 

C5   G5      A5    F5 
Razão pra viver {uououooo} 
C5        G5      A5    F5         
Me diga o que fazer  
C5            G5   A5          F5       
Razão pra viveeeer, me diga o que fazer 
C5      G5     A5  
Se nada faz mudar 
          F5 
meu jeito de pensar 


Final: 

e|------------------------------------------------------- 
b|------------------------------------------------------- 
g|--17--16--14--12---------17--16--17--16--14--12---5---- 
d|--x---x---x---x---(3x)---x---x---x---x---x---x----5---- 
a|--15--14--12--10---------15--14--15--14--12--10---3---- 
E|------------------------------------------------------- 
	  

Full key step upFull key step up
Half key step upHalf key step up
Half key step downHalf key step down
Full key step downFull key step down
Search Paypal
auto scroll beats size up size down change color hide chords drawings
tab show chords e-chords YouTube Clip e-chords hide all tabs e-chords go to top tab