Noutrocéu

Com Você Tab

Noutrocéu

Difficulty: nolevelnolevel

by jessgomes

tuner correct add songbook print version text version save to e-mail
chordsukulelecavacokeyboardtabbassdrumsharmonicsflute Guitar Pro
close

there isn't a video lesson for this song

request
chords

Com Você

  		E|--------------------------------------------------| 
B|--------------------------------------------------| 
G|--------------------------------------------------| 
D|------------------------------------------13--13--| 
A|--11--11--11--11--11--11--11--11--11--11--11--11--| 
E|--0---0---0---0---0---0---0---0---0---0---0---0---| 

E|--------------------------------------------------| 
B|--------------------------------------------------| 
G|--------------------------------------------------| 
D|------------------------------------------13--13--| 
A|--11--11--11--11--11--11--11--11--11--11--11--11--| 
E|--0---0---0---0---0---0---0---0---0---0---0---0---| 

E|------------------------------------------------------------------------| 
B|------------------------------------------------------------------------| 
G|------------------------------------------------------------------------| 
D|------------------------------------------------------------------------| 
A|--9--7--7--7--7--7--7--7--7--9--11--11--11--11--11--11--11--11--11--11--| 
E|--0--0--0--0--0--0--0--0--0--0--0---0---0---0---0---0---0---0---0---0---| 

Quando estou contigo o tempo passa lento  
E|--------------------------------------------------| 
B|--------------------------------------------------| 
G|--------------------------------------------------| 
D|------------------------------------------13--13--| 
A|--11--11--11--11--11--11--11--11--11--11--11--11--| 
E|--0---0---0---0---0---0---0---0---0---0---0---0---| 

Fico a espera assim de outro momento  

E|--------------------------------------------------| 
B|--------------------------------------------------| 
G|--------------------------------------------------| 
D|------------------------------------------13--13--| 
A|--11--11--11--11--11--11--11--11--11--11--11--11--| 
E|--0---0---0---0---0---0---0---0---0---0---0---0---| 

Com você Com Você 

E|------------------------------------------------------------------------| 
B|------------------------------------------------------------------------| 
G|------------------------------------------------------------------------| 
D|------------------------------------------------------------------------| 
A|--9--7--7--7--7--7--7--7--7--9--11--11--11--11--11--11--11--11--11--11--| 
E|--0--0--0--0--0--0--0--0--0--0--0---0---0---0---0---0---0---0---0---0---| 

Você na minha e eu na tua 
E|--------------------------------------------------| 
B|--------------------------------------------------| 
G|--------------------------------------------------| 
D|------------------------------------------13--13--| 
A|--11--11--11--11--11--11--11--11--11--11--11--11--| 
E|--0---0---0---0---0---0---0---0---0---0---0---0---| 

Quero pôr o pé agora mesmo na rua  
E|--------------------------------------------------| 
B|--------------------------------------------------| 
G|--------------------------------------------------| 
D|------------------------------------------13--13--| 
A|--11--11--11--11--11--11--11--11--11--11--11--11--| 
E|--0---0---0---0---0---0---0---0---0---0---0---0---| 

Pra te ver Pra te ver 
E|------------------------------------------------------------------------| 
B|------------------------------------------------------------------------| 
G|------------------------------------------------------------------------| 
D|------------------------------------------------------------------------| 
A|--9--7--7--7--7--7--7--7--7--9--11--11--11--11--11--11--11--11--11--11--| 
E|--0--0--0--0--0--0--0--0--0--0--0---0---0---0---0---0---0---0---0---0---| 

B5                      Db5    A5 
Embarquei sem querer na tua viagem  

(G Gb) E5 
Não sei porquê 

Final 
E|------------------------------------------------| 
B|------------------------------------------------| 
G|------------------------------------------------| 
D|----------------------------------9--11--9------| 
A|--11--11--11--11--11--11--11--11--0--0---0--11--| 
E|--0---0---0---0---0---0---0---0-------------0---| 

E|------------------------------------------------| 
B|------------------------------------------------| 
G|------------------------------------------------| 
D|----------------------------------9--11--9--11--| 
A|--11--11--11--11--11--11--11--11--0--0---0--0---| 
E|--0---0---0---0---0---0---0---0-----------------| 

E|------------------------------------------------| 
B|------------------------------------------------| 
G|----------------------------------9--11--9------| 
D|--11--11--11--11--11--11--11--11--0--0---0------| 
A|--0---0---0---0---0---0---0---0-------------11--| 
E|--------------------------------------------0---| 

E|------------------------------------------------| 
B|------------------------------------------------| 
G|------------------------------------------------| 
D|----------------------------------9--11--9------| 
A|--11--11--11--11--11--11--11--11--0--0---0--11--| 
E|--0---0---0---0---0---0---0---0-------------0---| 

E|------------------------------------------------| 
B|------------------------------------------------| 
G|------------------------------------------------| 
D|----------------------------------9--11--9------| 
A|--11--11--11--11--11--11--11--11--0--0---0--11--| 
E|--0---0---0---0---0---0---0---0-------------0---| 

Você ria e eu procurava as palavras  
E|--------------------------------------------------| 
B|--------------------------------------------------| 
G|--------------------------------------------------| 
D|------------------------------------------13--13--| 
A|--11--11--11--11--11--11--11--11--11--11--11--11--| 
E|--0---0---0---0---0---0---0---0---0---0---0---0---| 

Pra te escrever, mas não encontrava  
E|--------------------------------------------------| 
B|--------------------------------------------------| 
G|--------------------------------------------------| 
D|------------------------------------------13--13--| 
A|--11--11--11--11--11--11--11--11--11--11--11--11--| 
E|--0---0---0---0---0---0---0---0---0---0---0---0---| 

O que fazer? O que fazer? 
E|------------------------------------------------------------------------| 
B|------------------------------------------------------------------------| 
G|------------------------------------------------------------------------| 
D|------------------------------------------------------------------------| 
A|--9--7--7--7--7--7--7--7--7--9--11--11--11--11--11--11--11--11--11--11--| 
E|--0--0--0--0--0--0--0--0--0--0--0---0---0---0---0---0---0---0---0---0---| 

O tempo todo a vida nos prega peças 
E|--------------------------------------------------| 
B|--------------------------------------------------| 
G|--------------------------------------------------| 
D|------------------------------------------13--13--| 
A|--11--11--11--11--11--11--11--11--11--11--11--11--| 
E|--0---0---0---0---0---0---0---0---0---0---0---0---| 

 Mas até hoje saímos bem delas 
E|--------------------------------------------------| 
B|--------------------------------------------------| 
G|--------------------------------------------------| 
D|------------------------------------------13--13--| 
A|--11--11--11--11--11--11--11--11--11--11--11--11--| 
E|--0---0---0---0---0---0---0---0---0---0---0---0---| 

Por assim dizer Assim dizer 
E|------------------------------------------------------------------------| 
B|------------------------------------------------------------------------| 
G|------------------------------------------------------------------------| 
D|------------------------------------------------------------------------| 
A|--9--7--7--7--7--7--7--7--7--9--11--11--11--11--11--11--11--11--11--11--| 
E|--0--0--0--0--0--0--0--0--0--0--0---0---0---0---0---0---0---0---0---0---| 

B5         Db5             A5 
Me perdi sem querer na tua viagem  

(G Gb) E5 
Não sei porquê 

B5 Db5  D5    A5      E5 (G Gb E G Gb E) 
Encontrei em você um par 

B5 Db5  D5    A5      E5 (G Gb E G Gb E) 
Eu me perdi e não quero mais voltar 

SOLO 



E|--------------------------------------------------------------------------------| 
B|--------------------------------------------------------------------------------| 
G|--------------------------------------------------------------------------------| 
D|-------------------------9--11/13--11\9---------------------9--11/13--11\9--11--| 
A|--11--11--11--11--9--11------------------11--11--11--9--11----------------------| 
E|--------------------------------------------------------------------------------| 

E|-------------------------------------------------------------------------| 
B|----------------12---------12---------12---------------12b14--12b14--12--| 
G|------9--11b13------11b13------11b13------11b13r11--9--------------------| 
D|--11---------------------------------------------------------------------| 
A|-------------------------------------------------------------------------| 
E|-------------------------------------------------------------------------| 

E|--0--0--0--0--0--0-----0--0--0--0--0---0---0---0--| 
B|--5--7--9--7--5--4-----5--5--7--9--10--12--10--9--| 
G|--------------------------------------------------| 
D|--------------------------------------------------| 
A|--------------------------------------------------| 
E|--------------------------------------------------| 

E|----------------------------------------------12--------12-----| 
B|--12--12-10--12--12-----12--12-10--12--12-----15b17-----15b17--| 
G|--13--13/11--13--13-----13--13/11--13--13----------------------| 
D|---------------------------------------------------------------| 
A|---------------------------------------------------------------| 
E|---------------------------------------------------------------| 

E|----------12--15b17--15--12------------------------------------------------------------| 
B|--12--15---------------------15--------------------------------------------------------| 
G|------------------------------------14--14--13--13--11--11--9--9--11--11--9--9---------| 
D|--------------------------------------------------------------------------------11--9--| 
A|---------------------------------------------------------------------------------------| 
E|---------------------------------------------------------------------------------------| 

E|--0--0--0--0--0--0--0------------------------------| 
B|--5--5--4--4--2--2--0------------------------------| 
G|--------------------------2--1---------------------| 
D|--------------------------------4--2--4--2---------| 
A|--------------------------------------------4--2v--| 
E|---------------------------------------------------| 

B5         Db5             A5 
Me perdi sem querer na tua viagem  

(G Gb) E5 
Não sei porquê 

B5 Db5  D5    A5      E5 (G Gb E G Gb E) 
Encontrei em você um par 

B5 Db5  D5    A5      E5 (G Gb E G Gb E) 
Eu me perdi e não quero mais voltar 

Quando estou contigo o tempo passa lento 
Fico à espera assim de outro momento 
E|--------------------------------------------------| 
B|--------------------------------------------------| 
G|--------------------------------------------------| 
D|------------------------------------------13--13--| 
A|--11--11--11--11--11--11--11--11--11--11--11--11--| 
E|--0---0---0---0---0---0---0---0---0---0---0---0---| 

Com Você, com você 
E|----------------------------------------| 
B|----------------------------------------| 
G|----------------------------------------| 
D|----------------------------------------| 
A|--9--7--7--7--7--7--7--7--7--9-9-7------| 
E|--0--0--0--0--0--0--0--0--0--0-0-0------| 
	  

Full key step upFull key step up
Half key step upHalf key step up
Half key step downHalf key step down
Full key step downFull key step down
Search Paypal
auto scroll beats size up size down change color hide chords drawings
tab show chords e-chords YouTube Clip e-chords hide all tabs e-chords go to top tab

share with facebook