Nofx

home > Nofx

Usa-holes Tab

Nofx

Difficulty: nolevelnolevel

by aman%5Fclaudino

tuner correct add songbook print version text version save to e-mail
chordsukulelecavacokeyboardtabbassdrumsharmonicsflute Guitar Pro
chords

Usa-holes

  		Intro Baixo: 
      G A   D  Em 
E|--------------| 
B|--------------| 
G|--------7-9/--| 
D|--5-7---7-9/--| 
A|--5-7---5-7/--| 
E|--3-5---------| 

Riff Intro: 
      G A   D E E E B C   G A  B C B A G E 
E|----------------------------------------| 
B|----------------------------------------| 
G|--------7-9-9-9------------4-5-4--------| 
D|--5-7---7-9-9-9-9-10--5-7--4-5-4-7-5----| 
A|--5-7---5-7-7-7-9-10--5-7--2-3-2-7-5-2--| 
E|--3-5-----------7-8---3-5--------5-3-0--| 

      G A   D E E E B C   G A G  E     G A  G  E 
E|----------------------------------------------| 
B|-----------------------------------8-10-8--5--| 
G|-------7-9-9-9---------------------7-9--7--4--| 
D|--5-7--7-9-9-9-9-10---5-7-5--------5-7--5--2--| 
A|--5-7--5-7-7-7-9-10---5-7-5--2----------------| 
E|--3-5----------7-8----3-5-3--0----------------| 

      G A   D E E E B C  G A  B C B A G E 
E|---------------------------------------| 
B|---------------------------------------| 
G|--------7-9-9-9-----------4-5-4--------| 
D|--5-7---7-9-9-9-9-10-5-7--4-5-4-7-5----| 
A|--5-7---5-7-7-7-9-10-5-7--2-3-2-7-5-2--| 
E|--3-5-----------7-8--3-5--------5-3-0--| 

      G A D E E E B C   G A G  E 
E|-------------------------------------| 
B|-------------------------------------| 
G|------7-9-9-9--------------9/--------| 
D|--5-7-7-9-9-9-9-10--5-7-5--9/--------| 
A|--5-7-5-7-7-7-9-10--5-7-5--7/--------| 
E|--3-5---------7-8---3-5-3------------| 

Verso: 
It's like seeing a car crash from inside the car 
The driver's got his head craned back he's telling you a joke 
      G A   D Em 
E|--------------| 
B|--------------| 
G|--------7-9/--| 
D|--5-7---7-9/--| 
A|--5-7---5-7/--| 
E|--3-5---------| 

You see the bus on collision course 
You point your arm and turn your head and wait for the impact 

Refrão: 
This is the feeling we learn to live with in North America... 
      G A B C   C       D    D        G     F# G 
E|-------------------------------------------------| 
B|-------------------------------------------------| 
G|-------------------------------------------------| 
D|------4-5-55555555--7-77777777-------------------| 
A|--5-7-2-3-33333333--5-55555555----5555555445555--| 
E|--3-5-----------------------------3333333223333--| 

The morning headlines always accompanied with sweat and nausea 
      C       D       E 
E|------------------------------------------| 
B|-------------------888--------------------| 
G|------------------9999--------------------| 
D|--5555555-777777--9999--------------------| 
A|--3333333-555555--7777--------------------| 
E|------------------------------------------| 

Passagem: 
Every week another puzzle piece gets permanently glued into place 
        G       C       A       C 
E|------------------------------------| 
B|------------------------------------| 
G|------------------------------------| 
D|----------555555----------555555----| 
A|--555555--333333--777777--333333----| 
E|--333333----------555555------------| 

      G A  D E 
E|-------------| 
B|-------------| 
G|-------7-9/--| 
D|--5-7--7-9/--| 
A|--5-7--5-7/--| 
E|--3-5--------| 

Baixo e vocal: 
We see the iceberg from 15 miles away 
The captain orders the ship to  stay the course 

      G  F# F  E 
E|---------------| 
B|---------------| 
G|--12-11-10-9/--| 
D|--12-11-10-9/--| 
A|--10-9--8--7/--| 
E|---------------| 

Baixo e vocal: 
Full speed ahead shouts the accurst 
The next thing we heard was,  Richard women and children first 

Refrão: 
The ship is listing, the captain's placing blame on the iceberg 

      G A B C   C       D    D        G     F# G 
E|-------------------------------------------------| 
B|-------------------------------------------------| 
G|-------------------------------------------------| 
D|------4-5-55555555--7-77777777-------------------| 
A|--5-7-2-3-33333333--5-55555555----5555555445555--| 
E|--3-5-----------------------------3333333223333--| 

 That berg attacked us, I am declaring war on the Arctic 
       G       D      E                                     G   A   B 
E|-----------------------|                               |------------| 
B|-------------------888-|                               |------------| 
G|------------------9999-|                               |------------| 
D|--5555555-777777--9999-|                               |------------| 
A|--3333333-555555--7777-|                               |------------| 
E|-----------------------|                               |-3~--5~--7~~| 

Passagem: 
Who could ever have predicted the greatest ship could so easily sink... (duh) 
        G       C       A       C 
E|------------------------------------| 
B|------------------------------------| 
G|------------------------------------| 
D|----------555555----------555555----| 
A|--555555--333333--777777--333333----| 
E|--333333----------555555------------| 

Solo: 
E|------------------------------------------------------------------------------------| 
B|-----------17~~~~~~~~~~-------------------------------------------------------------| 
G|--15b(16)-----15r(1/2)--/14/12-14p12-14p12-14p12----12~----------------------12-9~--| 
D|-------------------------------------------------14--------9-8-7-5------------------| 
A|-------------------------------------------------------------------7-5-7-10---------| 
E|------------------------------------------------------------------------------------| 

E|----10h12p10----12p10-----12p10-----12p10---12p10-12p10--12-10---------| 
B|-12----------12--------12--------12-------12-------------------12-10~--| 
G|-----------------------------------------------------------------------| 
D|-----------------------------------------------------------------------| 
A|-----------------------------------------------------------------------| 
E|-----------------------------------------------------------------------| 

E|12-15p12----15p12-/10-12p10---12p10-12p10---------------------| 
B|---------15----------------12------------12-10----------------| 
G|----------------------------------------------------------9~--| 
D|----------------------------------------------9-7-5-7-5---9~--| 
A|--------------------------------------------------------7-7~--| 
E|--------------------------------------------------------------| 

Outro: 
Lifeboats are useless without rescue 
The only ships show up for salvage... 
     E          C          D         G  F# 
E|--------------------------------------------| 
B|--------------------------------------------| 
G|--------------------------------------------| 
D|--99999999--55555555---77777777-------------| (4x) 
A|--77777777--33333333---55555555--55555555---| 
E|---------------------------------33333322---| 

Riff final: 
      G A   D E E E B C  G A  B C B A G E 
E|---------------------------------------| 
B|---------------------------------------| 
G|--------7-9-9-9-----------4-5-4--------| 
D|--5-7---7-9-9-9-9-10-5-7--4-5-4-7-5----| 
A|--5-7---5-7-7-7-9-10-5-7--2-3-2-7-5-2--| 
E|--3-5-----------7-8--3-5--------5-3-0--| 

      G A D E E E B C   G A G  E 
E|-------------------------------------| 
B|-------------------------------------| 
G|------7-9-9-9--------------9/--------| 
D|--5-7-7-9-9-9-9-10--5-7-5--9/--------| 
A|--5-7-5-7-7-7-9-10--5-7-5--7/--------| 
E|--3-5---------7-8---3-5-3------------| 
	  

Full key step upFull key step up
Half key step upHalf key step up
Half key step downHalf key step down
Full key step downFull key step down
Search Paypal
auto scroll beats size up size down change color hide chords drawings
tab show chords e-chords YouTube Clip e-chords hide all tabs e-chords go to top tab