Nofx

home > Nofx

Straight Edge Tab

Nofx

Difficulty: ExpertExpert

tuner correct add songbook print version text version save to e-mail
chordsukulelecavacokeyboardtabbassdrumsharmonicsflute Guitar Pro
chords

Straight Edge

  		 
Afinação : E (standard) 
 
Intro (distorção saturada) 
 
E-------8------------------------------------------------------------------------- 
B---8----8b--8b8b5------------------------------------5h6-5---------------------- 
G---7b9--7b--7b7b5----5h6xxxx7-5h6xxxx7------xx7--5h6-5h7-5-5h--5---------------- 
D----------------------5h5xxxx7-5h5xxxx7h9p7--xx7--5h5-------5h7-5-5------3---3--- 
A------------------------------------------------------------------5h7-5--3h5-3-0- 
E--------------------------------------------------------------------------------- 
 
Verso (sem distorção) 
 
 F7M  D9 Cm5-/D A#6 A#5-/C A#m5-/C 

 
Solo 
 
E-13-13-13---16-13----------13--------------------------------------13------------- 
B-13-13-13-13---13--------13--16-13---------13--13----------------13--16--15h16p15- 
G--------------------15b17---------16-15-13-13--13---13---13-13-14----------------- 
D---------------------------------------------15--15------------------------------- 
A---------------------------------------------------------------------------------- 
E---------------------------------------------------------------------------------- 
 
E--------------------------------------------------------------------------13-13--- 
B-13h15p13--13--------13-----15-13-----13----------------------------13h15-13-13--- 
G---------15--15-13h14-------15-13-----13-----------------------13h14-------------- 
D-----------------------15--------15-13--15-13--13-------------------(5xs)--------- 
A---------------------------------------------15--15-14-13-11---------------------- 
E---------------------------------------------------------------------------------- 
 
E------------16-15--13----------13---------------------------------------------------------- 
B------13h15-15-15--13--------13--16-13------13---13--------13------------------------------ 
G-13h14------------------15b17---------16-15-13---13--------13------------------------------ 
D----------------------------------------------15---15-13-15--15-13------------------------- 
A------------------------------------------------------------------15-14-13-11---11--11-13-- 
E------------------------------------------------------------------------------13--13------- 
 
 
 
_______________________________________________________ 
Contribuição: Gabriel Vendramini([email protected]) 
	  

Full key step upFull key step up
Half key step upHalf key step up
Half key step downHalf key step down
Full key step downFull key step down
Search Paypal
auto scroll beats size up size down change color hide chords drawings
tab show chords e-chords YouTube Clip e-chords hide all tabs e-chords go to top tab