Nofx

home > Nofx

Six Years On Dope Tab

Nofx

Difficulty: nolevelnolevel

by PAULLET3

tuner correct add songbook print version text version save to e-mail
chordsukulelecavacokeyboardtabbassdrumsharmonicsflute Guitar Pro
chords

Six Years On Dope

  		
Intro 

e |----------------------------------------| 
B |----------------------------------------| 
G |----------------------------------------| 
D |----------------------------------------| 
A |-4--7-----4--7--9--7--4--7-----9--7--4--| 
E |-2--5-----2--5--7--5--2--5-----7--5--2--| 


Verse 

e |----------------------------------------------| 
B |----------------------------------------------| 
G |----------------------------------------------| 
D |-------7-----------------------7--------------| 
A |-4--7--5--7--4--7--4-----4--7--5--7--9--7--4--| 
E |-2--5-----5--2--5--2-----2--5-----5--7--5--2--| 


Chorus 

e |--------------| 
B |--------------| 
G |--------------| 
D |-7------------| 
A |-5-----7-----9| 
E |-------5-----7| 


Chorus Break Thing 

e |---------------------| 
B |---------------------| 
G |---------------------| 
D |---------------------| 
A |-4--7--9--7--4-------| 
E |-2--5--7--5--2-------|  
	  

Search Paypal
auto scroll beats size up size down change color hide chords drawings
tab show chords e-chords YouTube Clip e-chords hide all tabs e-chords go to top tab