Nofx

home > Nofx

Shitting bricks Tab

Nofx

Difficulty: nolevelnolevel

tuner correct add songbook print version text version save to e-mail
chordsukulelecavacokeyboardtabbassdrumsharmonicsflute Guitar Pro
chords

Shitting bricks

  		 
~ - Deixe soar 
# - abafar 
Após a Intro de Baixo 
 
e|-------------------------------------------------| 
B|-------------------------------------------------| 
G|-------------------------------------------------| 
D|5-7-7~-------------------------5-7-7~------------| 
A|5-7-7~-------------------------5-7-7~------------| 
E|3-5-5~-------------------------3-5-5~------------| 
 
e|-------------------------------------------------| 
B|-------------------------------------------------| 
G|-------------------------------------------------| 
D|5-7-10-7-7-7-5-7-10-7-7-7------------------------| 
A|5-7-10-7-7-7-5-7-10-7-7-7------------------------| 
E|3-5-8--5-5-5-3-5-8--5-5-5------------------------| 
 
e|-------------------------------------------------| 
B|-------------------------------------------------| 
G|-------------------------------------------------| 
D|5-7-7~---5-7-7~---5-7-7~---5-7-5-7-5-7-5-5-5-7---| 
A|5-7-7~---3-7-7~---5-7-7~---5-7-5-7-5-7-5-5-5-7---| 
E|3-5-5~---3-5-5~---3-7-5~---3-5-3-5-3-5-3-3-3-5---| 
 
Riff 1 
e|-------------------------------------------------| 
B|-------------------------------------------------| 
G|-------------------------------------------------| 
D|9-9-9-9-11-11-11-11-1111-99-11-11-11-11-1111-99--| 
A|9-9-9-9-11-11-11-11-1111-99-11-11-11-11-1111-99--| 
E|7-7-7-7-9--9--9--9--9-9--77-9--9--9--9--9-9--77--| 
  # # # # #  #  #  #          #  #  #  #   
 
                riff 2          riff 3     
depois fica - ({B},{G},{A},{F#}) , {B},{G}(,{B},{A},{G},{F}) , riff 1    
                                # # # # 
 
Após Fat Mike da um berro fica: 
riff 2-x3 
riff 3-x1 
riff 2-x1 
 
Faça esse procedimento 4 vezes 
E acaba com: 
Riff 2-x1 
Riff 1-x1 
 
 
_______________________________________________________ 
Contribuição: Marcelo de Salles Oliveira([email protected]) 

	  

Full key step upFull key step up
Half key step upHalf key step up
Half key step downHalf key step down
Full key step downFull key step down
Search Paypal
auto scroll beats size up size down change color hide chords drawings
tab show chords e-chords YouTube Clip e-chords hide all tabs e-chords go to top tab