Nofx

home > Nofx

Ronnie And Mags Tab

Nofx

Difficulty: nolevelnolevel

by ang%2Dletra

tuner correct add songbook print version text version save to e-mail
chordsukulelecavacokeyboardtabbassdrumsharmonicsflute Guitar Pro
chords

Ronnie And Mags

  		

INTRO 

e|---------------------------------------------------------------------------| 
B|---------------------------------------------------------------------------| 
G|-3-3-3-3-3-5-5-5-----7-7-7-7-7-7-7-7---3-3-3-3-3-5-5-5---5-7-7-7-7-7-7-7-7-| 
D|-3-3-3-3-3-5-5-5-7-3-7-7-7-7-7-7-7-7---3-3-3-3-3-5-5-5-7-5-7-7-7-7-7-7-7-7-|x2 
A|-1-1-1-1-1-3-3-3-7-3-5-5-5-5-5-5-5-5---1-1-1-1-1-3-3-3-7-3-5-5-5-5-5-5-5-5-| 
E|-----------------5-1-----------------------------------5-------------------| 



VERSE 
                and then 
e|------------|-------| 
B|------------|-------| 
G|-3*--5*--7*-|----7*-| 
D|-3---5---7--|X4--7--| 
A|-1---3---5--|----5--| 
E|------------|-------| 
p.m......... 

CHORUS 

e|---------------------------------------------------------------------------| 
B|---------------------------------------------------------------------------| 
G|-3-3-3-3-3-5-5-5-----7-7-7-7-7-7-7-7---3-3-3-3-3-5-5-5---5-7-7-7-7-7-7-7-7-| 
D|-3-3-3-3-3-5-5-5-7-3-7-7-7-7-7-7-7-7---3-3-3-3-3-5-5-5-7-5-7-7-7-7-7-7-7-7-|x2 
A|-1-1-1-1-1-3-3-3-7-3-5-5-5-5-5-5-5-5---1-1-1-1-1-3-3-3-7-3-5-5-5-5-5-5-5-5-| 
E|-----------------5-1-----------------------------------5-------------------| 
 
	  

Search Paypal
auto scroll beats size up size down change color hide chords drawings
tab show chords e-chords YouTube Clip e-chords hide all tabs e-chords go to top tab