Nofx

home > Nofx

Professional Crastination Tab

Nofx

Difficulty: nolevelnolevel

by andrsouza

tuner correct add songbook print version text version save to e-mail
chordsukulelecavacokeyboardtabbassdrumsharmonicsflute Guitar Pro
chords

Professional Crastination

  		              
:                                                                  
# intro #A                  X=left hand-mute                    
E---00-0X-00-0X-22-2X-22-2X-00-0X-00-0X-00-0X-00-0X-| 
B---00-0X-00-0X-33-3X-33-3X-33-3X-33-3X-11-1X-11-1X-| 
G---11-1X-11-1X-22-2X-22-2X-00-0X-00-0X-00-0X-00-0X-| 
D---22-2X-22-2X-00-0X-00-0X-22-2X-22-2X-22-2X-22-2X-| 
A---------------------------------------------------| 
E---------------------------------------------------| 
: 
# intro-part2 #A            X=left hand-mute 
E-------0-00-0X-22-2X-22-2X-00-0X-00-0X-00-0X-00-0X-| 
B---00-0---0-0X-33-3X-33-3X-33-3X-33-3X-11-1X-11-1X-| 
G---11-1-----1X-22-2X-22-2X-00-0X-00-0X-00-0X-00-0X-| 
D---22-2-----2X-00-0X-00-0X-22-2X-22-2X-22-2X-22-2X-| 
A---------------------------------------------------| 
E---------------------------------------------------| 
: 
# intro #A 
E------------------------------------------------------------------| 
B------------------------------------------------------------------| 
G------------------------------------------------7-7-7-7-5-5-5-5---| 
D---2--------------------------------------------7-7-7-7-5-5-5-5---| 
A---2--------------------------------------------5-5-5-5-3-3-3-3---| 
E---0--------------------------------------------------------------| 
# intro #B    *=play 5X   m=palm-mute 
E-----m----------mm--m----------mm--m----------mm------------------| 
B------*--------------*--------------*-----------------------------| 
G---9-9----7-9-9-779-9----7-9-9-779-9----7-9-9-997-7-7-7-5-5-5-5---| 
D---9-9----5-7-9-779-9----5-7-9-779-9----5-7-9-997-7-7-7-5-5-5-5---| 
A---7-7----5-7-7-557-7----5-7-7-557-7----5-7-7-775-5-5-5-3-3-3-3---| 
E---7-7--------7-557-7--------7-557-7--------7-77------------------| 
: 
# verse #A X2 *=play 5X   m=palm-mute 
E-----m----------mm--m----------mm--m----------mm------------------| 
B------*--------------*--------------*-----------------------------| 
G---9-9----7-7-9-999-9----7-7-9-999-9----7-7-9-997-7-7-7-5-5-5-5---| 
D---9-9----5-7-9-999-9----5-7-9-999-9----5-7-9-997-7-7-7-5-5-5-5---| 
A---7-7----5-5-7-777-7----5-5-7-777-7----5-5-7-775-5-5-5-3-3-3-3---| 
E------------------------------------------------------------------| 
# verse #B X2 *=play 5X   m=palm-mute 
E-----m----------mm--m----------mm--m----------mm------------------| 
B------*--------------*--------------*-----------------------------| 
G---9-9------7-9-999-9------7-9-999-9------7-9-997-7-7-7-5-5-5-5---| 
D---9-9----5-7-9-999-9----5-7-9-999-9----5-7-9-997-7-7-7-5-5-5-5---| 
A---7-7----5-5-7-777-7----5-5-7-777-7----5-5-7-775-5-5-5-3-3-3-3---| 
E---7-7----3-5-7-777-7----3-5-7-777-7----3-5-7-77------------------| 
: 
# Chorus #A !play all chords 6X! 
E-------------------| 
B-------------------| 
G---9---------------| 
D---9---5---7---9---| 
A---7---5---7---9---| 
E-------3---5---7---| 
# Chorus #B !play all chords 6X! 
E-------------------| 
B-------------------| 
G---9---------------| > Then play AverseAX2 or BverseBX2.  
D---9---5---7---9---| 
A---7---5---7---9---| 
E---7---3---5---7---| 
: 
>>>>>>>>>>to next page... 
: 
: 
PROFESSIONAL CRASTINATION                                                 2/3 
: 
# Chorus2 #B !Aplays ChorusA! !play all chords 6X! 
E-------------------| 
B-------------------| 
G---9--12--14-------|   
D---9--12--14---9---| 
A---7--10--12---9---| 
E---7--10--12---7---| 
: 
# bridge #A&B           *=play 6-8X #=play 3X 
E-----------------------------------------------------------------------| 
B----*-----------------*-------*-------*-----------------*-------#---#--| 
G---9------12--12--11-7-------9-------9------12--12--11-7-------5---4---| 
D---9------1212121211-7-------9-------9------1212121211-7-------5---4---| 
A---7------10121012-9-5-------7-------7------10121012-9-5-------3---2---| 
E----------10101010-9------------------------10101010-9-----------------| 
: 
# acoustic bridge #B !A quiet! 
E---00-0X-00-0X-22-2X-22-2X-00-0X-00-0X-00-0X-22-2X-| 
B---00-0X-00-0X-33-3X-33-3X-33-3X-33-3X-11-1X-33-3X-| 
G---11-1X-11-1X-22-2X-22-2X-00-0X-00-0X-00-0X-22-2X-| 
D---22-2X-22-2X-00-0X-00-0X-22-2X-22-2X-22-2X-00-0X-| 
A---------------------------------------------------| 
E---------------------------------------------------| 
: 
# wa-wa-wa wawa-wa-wa-waa #A !B plays introA! 
E---------------------------------| 
B---5---5---7---8-7---5-----------| 
G-------------------------7-------| 
D-----------------------------5---| 
A---------------------------------| 
E---------------------------------| 
: 
# acoustic solo #A !Bplays introAX4! p=pull-off v=vibrato                            > 
E-----------------5---7---8---7-----------8-7---5-7-------------------------> 
B--/5---5---7---8-------------------------------------810---7---8---7---5---> 
G--/4-----------------------------------------------------------------------> 
D---------------------------------------------------------------------------> 
A---------------------------------------------------------------------------> 
E---------------------------------------------------------------------------> 
>acoustic soloA                                                           > 
>-------2-3-5-3-2---3---2-------------------------------------------------> 
>---3-5-------------------3/5v--------------------------------------------> 
>-----------------------------------------5---5-5-4---4-4-2---2-2p0-------> 
>-------------------------------------------------------------------------> 
>-------------------------------------------------------------------------> 
>-------------------------------------------------------------------------> 
>acoustic soloA                                                              > 
>-----------5-------------5-7--8-7------10-8-7-------------------------------> 
>--/5--7-8-------/5--7-8----------------------10-8-710-8-7-5-8-7\5-3-5-3-5---> 
>--/4------------/4----------------------------------------------------------> 
>----------------------------------------------------------------------------> 
>----------------------------------------------------------------------------> 
>----------------------------------------------------------------------------> 
>acoustic soloA 
>---------------------------------------------------------------------| 
>---5-7--8-7-------7-8/10----10-10--8--7---5--7--5---3--5--3--5v------| 
>---------------------------------------------------------------------| 
>---------------------------------------------------------------------| 
>---------------------------------------------------------------------| 
>---------------------------------------------------------------------| 
: 
>>>>>>>>>to next page... 
: 
: 
: 
: 
PROFESSIONAL CRASTINATION                                                 3/3 
: 
# bridge2 #A *=play 4X <<<=pick-slide 
E------------------|-----|3X|------|----------------| 
B------------------|---------*---*-|----------------| 
G-----------7---9--|-*---*--7---9--|-*---*--7-------| 
D---2---5---7---9--|2---5---7---9--|2---5---7-------| 
A---2---5---5---7--|2---5---5---7--|2---5---5----<<<| 
E---0---3----------|0---3----------|0---3--------<<<| 
# bridge2 #B *=play 4X 
E-------3----------|-----|3X|------|----------------| 
B-------3----------|---------*---*-|----------------| 
G-------4---7---9--|-*---*--7---9--|-*---*--7-------| 
D---2---5---7---9--|2---5---7---9--|2---5---7-------| 
A---2---5---5---7--|2---5---5---7--|2---5---5-------| 
E---0---3---5---7--|0---3---5---7--|0---3---5-------| 
:                 !B plays ChorusBX3! 
# Chorus3-solo #A b=bend up one step p=pull-off h=hammer-on v=vibrato> 
E--12--12-12-12-12-151212--12-12-12-1512----12--12-12-12-----12151215> 
B--15b-15b15b15b15b-p--15b-15b15b15b-p--151215b-15b15b15b15bv-h---h--> 
G----------------------------------------p---------------------------> 
D--------------------------------------------------------------------> 
A--------------------------------------------------------------------> 
E--------------------------------------------------------------------> 
>Chorus3-soloA e=bend up 1/4 note                                           > 
>---p---p-------------------------------------------------------------------> 
>--15121512-p---------------------------------------------------------------> 
>----------141214ev-----12e----1214e--12--12e----1214e--h--12e--------------> 
>---------------------14-----14---------14-----14------1214-----------------> 
>---------------------------------------------------------------121212141414> 
>---------------------------------------------------------------------------> 
>Chorus3-soloA                                                              > 
>------------------------------------1515151515-p--|15------|----15--|15-15-> 
>--------------------1212121515151717----------1715|--171517|1517--17|------> 
>------------12121414------------------------------|---p-h--|-h------|------> 
>--1212121414--------------------------------------|--------|--------|------> 
>--------------------------------------------------|--------|--------|------> 
>--------------------------------------------------|--|2X|--|--|5X|--|------> 
>Chorus3-soloA 
>--15b-15-14-12----------------------| 
>---------------15-12-15b-15-12------| 
>-------------------------------14\--| 
>------------------------------------| 
>------------------------------------| 
>------------------------------------| 
: 
Then play A&BbridgeA&B (!end with first chord of AChorusA or BChorusB 3X!) 
Tilt! 
Tabbed by Jussi Heinonen 28.11.1997.    (revised 29.05.2002.) 
	  

Search Paypal
auto scroll beats size up size down change color hide chords drawings
tab show chords e-chords YouTube Clip e-chords hide all tabs e-chords go to top tab