Nofx

home > Nofx

Insulted By Germans Tab

Nofx

Difficulty: nolevelnolevel

by sabrjoao

tuner correct add songbook print version text version save to e-mail
chordsukulelecavacokeyboardtabbassdrumsharmonicsflute Guitar Pro
chords

Insulted By Germans

  		

A=Guitar 1   B=Guitar 2  A&B=Both 
: 

# intro #A&B 
>-----------------------| 
>-----------------------| 
>-----6-7-9-7-6-7-9-----| 
>--77-6-7-9-7-6-7-9-7---| 
>--00-4-5-7-5-4-5-7-0---| 
>-----------------------| 
: 
# verse1 #B !pm=palm mute around 24x, $=8x p-muted, *=8x! 
E--------------------------------------| 
B----------------------------------*---| 
G--pm---------------------------$-7----| 
D--2---------------------------4--7----| 
A--0---------------------------2--5----| 
E--------------------------------------| 
: 
# verse1 #A  !h=hammer on, p=pull off! 
E--------------------------| 
B--------------------------| 
G---------------7----------| 
D----5h7p5h7------h7p5h7---| 
A--------------------------| 
E--------------------------| 
: 
# main #A&B 
E-----------------------------------------| 
B-----------------------------------------| 
G-----6-7-9-7-6-7-9-----6-7-9-7-6-7-9-----| 
D--77-6-7-9-7-6-7-9--77-6-7-9-7-6-7-9-7---| 
A--00-4-5-7-5-4-5-7--00-4-5-7-5-4-5-7-0---| 
E-----------------------------------------| 
: 
# verse2 #A  !B plays verse1! 
E-----------------|  
B----c------------|   !c=pinch harmonic, b=bend, p=pull off! 
G----7b----5------| 
D-----------------| 
A-----------------| 
E-----------------| 
: 
# main2 #A&B 2x   !%%=pause, $=only second time! 
E----|-2x-|--%%-|-----------------------| 
B------------%%-|-----------------------| 
G-----6-7----%%-|-----6-7-9-77-6-7-9--$-| 
D--77-6-7----%%-|--77-6-7-9-77-6-7-9-7--| 
A--00-4-5----%%-|--00-4-5-7-55-4-5-7-0--| 
E------------%%-|-----------------------| 
: 
# verse3 # !B plays verse1! 
E------------------| 
B---0~----5~-------| I'm not to sure about 
G---0~----4b5r4----| this part. 
D------------------| 
A------------------| 
E------------------| 
: 
# main3 #A&B 
E------------------------------------%%-------------------| 
B------------------------------------%%-------------------| 
G-----6-7-9-7-6-7-9------6-7-9-7-6---%%-----6-7-9-7-6-9---| 
D--77-6-7-9-7-6-7-9---77-6-7-9-7-6-7-%%--77-6-7-9-7-6-9---| 
A--00-4-5-7-5-4-5-7---00-4-5-7-5-4-0-%%--00-4-5-7-5-4-7---| 
E------------------------------------%%-------------------| 
: 
# bridge #B !*=7-8x with skaish rhythm! 
E-----*-----*----5-*------*------*-------*---| 
B----4-----7-----5-------9------4-------7----| 
G--4-4---7-7-----6-----9-9----4-4-----7-7----| 
D--4-4---7-7---7-7-----9-9----4-4-----7-7----| 
A--2-2---5-5---7-7-----7-7----2-2-----5-5----| 
E--------------5-5---------------------------| 
: 
# solo #A !over last chord of bridge! 
E-----------------------------------------------------> 
B-----------------------------------------------------> 
G----------------------------------------------5------> 
D------------------------------------------5-7---7----> 
A----------------------------------0-3-5-7------------> 
E-----------------------------------------------------> 
# solo #A 
>--------------------------------8p5---5---------------------> 
>------------------------------------8---8p5---5-------------> 
>---------5v----7b9r--7b9r7p5----------------7---7p5-m-m-5---> 
>--7--p5------7---------------7----------------------7-5---7-> 
>---------------\4x/-----------------------------------------> 
>--\3x-/-----------------------------------------------------> 
# solo #A 
>--8p7p5------------------------5-5-5~---| 
>--------8p7p5----5-------------5-5-5~---| 
>---------------7----7b9r7p5-------------| 
>----------------------------h7----------| 
>----------------------------------------| 
>----------------------------------------| 
: 
# solo-bg #B 
E--------------------------------------------------------> 
B--------------------------------------------------------> 
G-----6-7-9-7-6-7-9------6-7-9-7-6--------6-7-9-7-6-7-9--> 
D--77-6-7-9-7-6-7-9---77-6-7-9-7-6-7---77-6-7-9-7-6-7-9--> 
A--00-4-5-7-5-4-5-7---00-4-5-7-5-4-0---00-4-5-7-5-4-5-7--> 
E--------------------------------------------------------> 
# solo-bg #B 
>-----------------------| 
>-----------------------| 
>-----6-7-9-7-6---------| 
>--77-6-7-9-7-6-7-7-7---| 
>--00-4-5-7-5-4-0-0-0---| 
>-----------------------| 
: 
# verse4 #A&B !pm=palm mute around 24x, $=8x p-muted, *=8x! 
E--------------------------------------| 
B----------------------------------*---| 
G--pm---------------------------$-7----| 
D--2---------------------------4--7----| 
A--0---------------------------2--5----| 
E--------------------------------------| 
: 
# main4 #A&B !$=only last time, ~=let ring! 
E----|-2x-|--%%-|------------------------| 
B------------%%-|------------------------| 
G-----6-7----%%-|-----6-7-9-77-6-7-9--$--| !Then pause with just bass! 
D--77-6-7----%%-|--77-6-7-9-77-6-7-9-7~--| 
A--00-4-5----%%-|--00-4-5-7-55-4-5-7-0~--| 
E------------%%-|------------------------| 
: 
# german-talking # 2x 
E--------------------------| 
B----------------5~--------| 
G---------7~-----5~--------| 
D--7~-----5~-----5~---7~---| 
A--0~-----------------0~---| 
E--------------------------| 
: 
#?Chorus?#B 2x (Germans love to insult me...) 
E-------5-------------| 
B-------5-------------| !all chords 8x, $=not last time! 
G-------4----7-----$--| 
D--7----5----7----7---| 
A--7----5----5----7---| 
E--5----3----5----5---| 
#?Chorus?#A !comes in on 4th chord of Chorus B! 
E----------------| 
B----------------| 
G--7b9r7p5-------| 
D----------7-7---| 
A----------------| 
E----------------| 
: 
# outro #B !A play Chorus last time over this! 
E----|-2x-|--%%-|--> 
B------------%%-|--> 
G-----6-7----%%-|--> 
D--77-6-7----%%-|--> 
A--00-4-5----%%-|--> 
E------------%%-|--> 
# outro #A&B 
>------------------|----|-2x-|--%%--|--------------------| 
>------------------|------------%%--|--------------------| 
>-----6-7-9-77-6-7-|-----6-7----%%--|-----6-7-9-77-6-----| 
>--77-6-7-9-77-6-7-|--77-6-7----%%--|--77-6-7-9-77-6-7---| 
>--00-4-5-7-55-4-5-|--00-4-5----%%--|--00-4-5-7-55-4-0---| 
>------------------|------------%%--|--------------------|  
	  

Search Paypal
auto scroll beats size up size down change color hide chords drawings
tab show chords e-chords YouTube Clip e-chords hide all tabs e-chords go to top tab