Nofx

home > Nofx

Green Corn Tab

Nofx

Difficulty: nolevelnolevel

tuner correct add songbook print version text version save to e-mail
chordsukulelecavacokeyboardtabbassdrumsharmonicsflute Guitar Pro
chords

Green Corn

  		A=wide guitar   B=large guitar   A&B=both guitars
:
# intro #A            /=slide up
E-----------------------------------------------------|
B-----------------------------------------------------|
G---------------------------------------------5-5-5---|
D---------------------------------------------5-5-5---|
A-----4-4---------3------------/8-------------3-3-3---|
E-----------------------------------------------------|
# intro #B            *=play 6X                 
E-----------------------------------------------------|    
B-----------------------------------------------------|     
G----*------*------*------*------*------------5-5-5---|     
D---7------7------7------7------3------3-3--3-5-5-5---|     
A---7------7------7------7------3------3-3--3-3-3-3---|     
E---5------5------5------5------1------1-1--1---------|     
:
# intro2 #A            /=slide up                        
E-----------------------------------------------------------------------|
B-----------------------------------------------------------------------|
G---------------------------------------------------------------5-5-5---|
D---7-5-7-5-0----------------7-5-7-5-0--------------------------5-5-5---|
A-------------3---5--3-0-3-------------3---5-3-0-3-8---7---3----3-3-3---|
E-----------------------------------------------------------------------|
# intro2 #B            *=play 6X                 
E-----------------------------------------------------------------------|    
B-----------------------------------------------------------------------|     
G----*-----------*------------*-----------*---------*-----------5-5-5---|     
D---7-----------7------------7-----------7---------3-----3-3--3-5-5-5---|     
A---7-----------7------------7-----------7---------3-----3-3--3-3-3-3---|     
E---5-----------5------------5-----------5---------1-----1-1--1---------|     
:
# intro3 #A&B    *=play 40X palm-muted
E-------|
B-------|
G----*--|
D---7---|
A---7---|
E---5---|
:
# intro4 #A&B
E--------------------------------------------------------------------|
B--------------------------------------------------------------------|
G--------------------------------------------------9-9-9-9-9-9-------|
D---3----3----3---10-7---3----3----3---7--7-7-5-5--9-9-9-9-9-9-pick--|
A---3----3----3---10-7---3----3----3---7--7-7-5-5--7-7-7-7-7-7-slide-|
E---1--0-1--0-1-0--8-5---1--0-1--0-1-0-5--5-5-3-3--------------------|
:
# verse #A&B X2   *=play 3X
E-----------------------------------|
B----------------*---------------*--|
G----*---*---*--5----*---*---*--5---|
D---7---3---3---5---5---5---3---5---|                                    
A---7---3---3---3---5---5---3---3---|
E---5---1---1-------3---3---1-------|
:
>>>>>>>>>>>>to next page...
:
:
:
:
:
:
:
:
:
GREEN CORN
:
# bridge #A          /=slide up
E-----------------------------------------------------------------------|
B-----------------------------------------------------------------------|
G---------------------------------------------------------------5-5-5---|
D---7-5-7-5-0----------------7-5-7-5-0--------------------------5-5-5---|
A-------------3---5--3-0-3-------------3---5-3-0-3-8-7--5--3----3-3-3---|
E-----------------------------------------------------------------------|
# bridge #B            *=play 6X                 
E-----------------------------------------------------------------------|    
B-----------------------------------------------------------------------|     
G----*-----------*------------*-----------*---------*-----------5-5-5---|     
D---7-----------7------------7-----------7---------3-----3-3--3-5-5-5---|     
A---7-----------7------------7-----------7---------3-----3-3--3-3-3-3---|     
E---5-----------5------------5-----------5---------1-----1-1--1---------|     
:
Then play verseA&B 
:
# bridge2 #A&B  (Aaaa`aa...!) *=play 10X                                
E-------------------------------------|
B-------------------------------------|
G----*---*----------------------------|
D---7---5---3-3--3-3--------------2---|          
A---7---5---3-3--3-3-0-2-3-2-5-3--2---|
E---5---3---1-1--1-1--------------0---|
:
# bridge3 #A      palm-muted!
E---------------------------------------------------------------------------|
B---------------------------------------------------------------------------|
G----*-------------*-------------*-------------*-------------*--------------|
D---7-------------7-------------7-------------7-------------7---------------|
A---7-------------7-------------7-------------7-------------7---------------|
E---5-------------5-------------5-------------5-------------5---------------|
# bridge3 #B                                                     
E---------------------------------------------------------------------------|
B---------------------------------------------------------------------------|
G----*-------------*--------------------------------------------------------|
D---7-------------7-------------7-7-7-7-5-----7-7-7-7-5---5-7-7-7-7-5-------|
A---7-------------7-----------------------5-0-----------5-------------5-0---|
E---5-------------5---------------------------------------------------------|
:  \__palm-muted___/
:
# background during the solo #A  *=play 6X
E---------------------------------------------------|
B----------------------------*---------------*------|                     
G--------------------*---*--7----*---*---*--7----*--|                   
D---3----3----3-----7---5---7---7---7---5---7---7---|
A---3----3----3-----7---5---5---7---7---5---5---7---|
E---1--0-1--0-1-0---5---3-------5---5---3-------5---|
:
# solo #B  h=hammer-on  /=slide up      v=vibrato           p=pull-off
E--------------------------------------------------5-7h8-10-12-10--8------>
B-------------------------------------------5-6-8--------------------10--->
G------------------------------------4-5/7-------------------------------->
D---3----3----3-----------------5-7--------------------------------------->
A---3----3----3----------5-7--8------------------------------------------->
E---1--0-1--0-1-0-5h7--8-------------------------------------------------->
:
>>>>>>>>>>>>>>>>>>> to next page
:
:
:
:
:
:
:
:
GREEN CORN                                                                3/3
:
E---------------10-------------------10-------------------10--->
B---12p10-12p10----12p10-12p10-12p10----12p10-12p10-12p10------>
G-------------------------------------------------------------->
D-------------------------------------------------------------->
A--------------------play-extra-fast!-------------------------->
E-------------------------------------------------------------->
:
E---------------------10---17-15----------15-17--15--------|
B---12p10-12p10-12p10------------17-15-17------------------|
G----------------------------------------------------14v---|
D----------------------------------------------------------|   
A----------------------------------------------------------|
E----------------------------------------------------------|
:
Then play verseA&B with one jump!
:
# outro #A
E-------------------------------------------------------|
B-------------------------------------------------------|
G-------------------------------------------------------|
D---7-5-7-5-0-----7-5-7-5-0-----7-5-7-5-0---------------|
A-------------3-------------3-------------3---5--3--0---|
E-------------------------------------------------------|
# outro #B   *=play 6X                           
E-------------------------------------------------------|
B------------------*------------------------------------|
G----*------------5------------7-7--7-7-5-7-8-7--5------|
D---7-------------5------------7-7--7-7-5-7-8-7--5--7---|
A---7-------------3------------5-5--5-5-3-5-6-5--3--7---|
E---5-----------------------------------------------5---|
	  

Search Paypal
auto scroll beats size up size down change color hide chords drawings
tab show chords e-chords YouTube Clip e-chords hide all tabs e-chords go to top tab