Nofx

home > Nofx

Golden Boys Tab

Nofx

Difficulty: nolevelnolevel

by DJRain17

tuner correct add songbook print version text version save to e-mail
chordsukulelecavacokeyboardtabbassdrumsharmonicsflute Guitar Pro
chords

Golden Boys

  		Intérprete: NOFX 
Música:     Golden Boys 
 
 
 
  
Aimless ain't got no where to go 
All my thoughts have gone? 
 
Ready? 
      
e|-----------------------|  
B|-----------------------|  
G|-----------------------| (A) 
D|77777777777777777777777|  
A|77777777777777777777777|  
E|55555555555555555555555|  
 
(Riff 1) 
Mother Mary had a son      Whose days were spent on having fun 
              (A)                                          (F#m) 
e|---------------------------------------------|  
B|---------------------------------------------|  
G|---------------------------------------------|  
D|77777777777777---222222222222222222222222----|  
A|77777777777777---222222222222222222222222----|  
E|55555555557777---444444444444444444444444----|  
 
And Monday he got a letter:     ?you could make yourself feel better? 
       (D)                     (Dm) 
e|---------------------------------------------|  
B|---------------------------------------------|  
G|777777777777777-----7777777777777777777777---|  
D|777777777777777-----7777777777777777777777---|  
A|555555555555555-----5555555555555555555555---|  
E|---------------------------------------------|  
 
Mother Mary had a man who healed with healing hands 
        (A)         (E)                          (C#m) 
e|----------------------------------|  
B|----------------------------------|  
G|-------11111--66666666666666666666|  
D|777777-22222--66666666666666666666|  
A|777777-22222--44444444444444444444|  
E|555555----------------------------|  
 
Millions of boys lay dead 
         (D)         (A)   
e|-----------------------|  
B|-----------------------|  
G|77777777---------------|  
D|77777777-7-------------|  
A|55555555-7-------------|  
E|---------5-------------|  
 
Mother Mary had a baby     but he had his he?d never tasted 
 
              (A)                                          (F#m) 
e|---------------------------------------------|  
B|---------------------------------------------|  
G|---------------------------------------------|  
D|77777777777777---444444444444444444444444----|  
A|77777777777777---444444444444444444444444----|  
E|55555555555555---222222222222222222222222----| 
 
 
 
 
 
 
He hunted all the others then     he hunted all his brothers 
       (D)                     (Dm) 
e|---------------------------------------------|  
B|---------------------------------------------|  
G|777777777777777-----7777777777777777777777---|  
D|777777777777777-----7777777777777777777777---|  
A|555555555555555-----5555555555555555555555---|  
E|---------------------------------------------|  
 
 
Mother Mary had a man who healed with healing hands 
        (A)         (E)                          (C#m) 
e|----------------------------------|  
B|----------------------------------|  
G|-------11111--66666666666666666666|  
D|777777-22222--66666666666666666666|  
A|777777-22222--44444444444444444444|  
E|555555----------------------------| 
 
Millions of boys stay dead 
         (D)         (A)   
e|-----------------|  
B|-----------------|  
G|77777777---------|  
D|77777777-77777777|  
A|55555555-77777777|  
E|---------55555555| 
 
(Refrão) 
   Go-Go-Golden Boys 
   (F#m) 
e|-----------------------|  
B|-----------------------|  
G|-----------------------|  
D|4----------------------|  
A|4----------------------|  
E|2----------------------|  
 
You?ve got your war toys               Looking straight on 
                (B)                        (F#m)         (Sol#m)               (C#m)         
e|----------------------------------------------------|  
B|----------------------------------------------------|  
G|4444444444444444444-----------------------6666666666|  
D|4444444444444444444-444444h66666666666666-6666666666|  
A|2222222222222222222-444444h66666666666666-4444444444|  
E|--------------------222222h44444444444444-----------|  
 
 
 
 
And with your eyes of blue     I will remember you     One for me, one for you 
                (D)                                      (F#m)                               (C#m) 
e|-------------------------------------------------------------|  
B|-------------------------------------------------------------|  
G|77777777777777777777---------------------66666666666666666666|  
D|77777777777777777777--44444444444444444--66666666666666666666|  
A|55555555555555555555--44444444444444444--44444444444444444444|  
E|----------------------22222222222222222----------------------|  
 
 
 
(Riff 1) 
Mother Mary baby, rock and roll 
Rock and roll, you know I only want you for your rock and roll Mother Mary 
Mother Mary had a man who healed with pleasing hands 
Millions of boys stay dead 
 
(Refrão) 
Go-Go-Golden Boys 
You?ve got your war toys 
Looking straight on 
And with your eyes of blue 
We?ll do the old one two 
One for me, one for you 
 
(Riff 1) 
1, 2, 3, GO! 
Brother mother baby you?re flipped out 
You?re over influenced 
One day you will feel it 
You?ll make yourself feel better 
Mother Mary had a man who healed with healing hands 
 
Millions of boys                     stay dead 
                              (D)    (F)            (A) 
e|-----------------------------|  
B|-----------------------------|  
G|------------77h1010----------| 3X  
D|------------77h1010---7777777|   
A|------------55h 8 8---7777777|  
E|----------------------5555555|  
 
 
 
e é isto pessoal procurem o ritmo certo?espero que disfrutem prk me deu algum trabalho. 
 
DJRain17 
 

	  

Full key step upFull key step up
Half key step upHalf key step up
Half key step downHalf key step down
Full key step downFull key step down
Search Paypal
auto scroll beats size up size down change color hide chords drawings
tab show chords e-chords YouTube Clip e-chords hide all tabs e-chords go to top tab