Nofx

home > Nofx

Fleas Tab

Nofx

Difficulty: nolevelnolevel

tuner correct add songbook print version text version save to e-mail
chordsukulelecavacokeyboardtabbassdrummharmonicsflute Guitar Pro
chords

Fleas

  		 A=left guitar   B=right guitar   A&B=both
:
# intro #A                  *=play 12X
E-------------------------------------------------------------------------|
B-------------------------------------------------------------------------|
G---------------------------7------------------------------------*-----*--|
D---------3-----2-----------5-----3-----2-----------------------2-----2---|
A---------------------3-----------------------3-----5-----3---------------|
E-------------------------------------------------------------------------|
# intro #B                  *=play at the end of the intro
E-------------------------------------------------------------------------|
B----------------------------*--------------------------------------------|
G--12----------12----------12---------------------------------------------|
D--12----------12----------12---------------------------------------------|
A--10----------10----------10---------------------------------------------|
E-------------------------------------------------------------------------|
:
# verse #A&B *=play 3-5X                                                  >
E------------------------------------------------------------------------->
B----*-----------*-----*-----*-----------*-----*-----*-----------------*-->
G---5------*----7-----5-----5------*----7-----5-----5------*-----*----5--->
D---5-----5-----7-----5-----5-----5-----7-----5-----5-----5-----3-----5--->
A---3-----5-----5-----3-----3-----5-----5-----3-----3-----5-----3-----3--->
E---------3-----------------------3-----------------------3-----1--------->
>verseA&B
>-------------------------|
>----*--------------------|
>---5------*-----*-----*--|
>---5-----5-----3-----3---|
>---3-----5-----3-----3---|
>---------3-----1-----1---|
:
# bridge #A
E-------------------------|
B-------------------------|
G---7---------------------|
D---5-----3-----2---------|
A---------------------3---|
E-------------------------|
# bridge #B   *=play throughout the bridge
E-------------------------|
B----*--------------------|
G--12---------------------|
D--12---------------------|
A--10---------------------|
E-------------------------|
:
# verse2 #A     (Mother had forbidden me...)   *=play 3-5X                  >
E--------------------------------------------------------------------------->
B----*-----------*-----*-----*-----------*-----*-----*-----*---------------->
G---5------*----7-----5-----5------*----7-----5-----5-----7---------7-7--*-->
D---5-----5-----7-----5-----5-----5-----7-----5-----5-----7-----5-5-7-7-2--->
A---3-----5-----5-----3-----3-----5-----5-----3-----3-----5-----5-5-5-5-2--->
E---------3-----------------------3-----------------------------3-3-----0--->
# verse2 #B                                    *=play 3-5X
E--------------------------------------------------------------------------->
B----*-----------*-----*-----*-----------*-----*-----*-----*-------------*-->
G---5------*----7-----5-----5------*----7-----5-----5-----7---------7-7-9--->
D---5-----5-----7-----5-----5-----5-----7-----5-----5-----7-----5-5-7-7-9--->
A---3-----5-----5-----3-----3-----5-----5-----3-----3-----5-----5-5-5-5-7--->
E---------3-----------------------3-----------------------------3-3--------->
:
:
:
:
:
FLEAS                                                                     2/2  
:
>verse2A
>---------------------------------------------------------------------------|
>----------*-----------------*-----------*-----*-------------------------*--|
>----*----5------*-----*----5------*----5-----7---------7-7--*-----*----5---|
>---3-----5-----5-----3-----5-----5-----5-----7-----5-5-7-7-2-----3-----5---|
>---3-----3-----5-----3-----3-----5-----3-----5-----5-5-5-5-2-----3-----3---|
>---1-----------3-----1-----------3-----------------3-3-----0-----1---------|
>verse2B
>---------------------------------------------------------------------------|
>----------*-----------------*-----------*-----*-------------*-----------*--|
>----*----5------*-----*----5------*----5-----7---------7-7-9------*----5---|
>---3-----5-----5-----3-----5-----5-----5-----7-----5-5-7-7-9-----3-----5---|
>---3-----3-----5-----3-----3-----5-----3-----5-----5-5-5-5-7-----3-----3---|
>---1-----------3-----1-----------3-----------------3-3-----------1---------|
:
# outro #A
E-------------------------------------------------------|
B-------------------------------------------------------|
G---7---------------------------------------------------|
D---5-----3-----2-----------------------2---------------|
A---------------------3-----5-----3-----------------5---|
E-------------------------------------------------------|
# outro #B    *=play almost throughout the outro, let ring at the end
E-------------------------------------------------------|
B----*--------------------------------------------------|
G--12---------------------------------------------------|
D--12---------------------------------------------------|
A--10---------------------------------------------------|
E-------------------------------------------------------|
	  

Search Paypal
auto scroll beats size up size down change color hide chords drawings
tab show chords e-chords YouTube Clip e-chords hide all tabs e-chords go to top tab