Nofx

home > Nofx

Eat The Meek Tab

Nofx

Difficulty: BeginnerBeginner

tuner correct add songbook print version text version save to e-mail
chordsukulelecavacokeyboardtabbassdrummharmonicsflute Guitar Pro
chords

Eat The Meek

  		A=Melvin   B=El Hefe   A&B=both
:
# intro #AX4 !play all notes X4!  # verse #AX2 !play all notes X4!
E---5-------6-------|             E---5---6-------8---|
B---6--10---6--10---|also         B---6---6--10---8---|
G---7--10---7--10---|chorus       G---7---7--10---9---| > Then play AintroAX2.
D---7--10---8--10---|             D---7---8--10--10---|
A-------------------|             A-------------------|
E-------------------|             E-------------------|
:   Dm  F   A#  F                     Dm  A#  F   C
:
# verse2 #A !play all notes X4!   (The factory mass producing...)
E---5---6---8-------5-------8---5---|
B---6---6---8--10---6--10---8---5---|
G---7---7---9--10---7--10---9---6---|
D---7---8--10--10---7--10--10---7---|   > Then play AintroAX2.
A-----------------------------------|
E-----------------------------------|
:   Dm  A#  C   F   Dm  F   C   A
:
# verse3 #B   !palm-muted!
E-------------------------------------------------------|
B-------------------------------------------------------|
G--------------------------------555--------------------|
D------333----------333-------333---3333------55532-----|
A---555---5300---111---1111----------------333-----33---|
E-------------------------------------------------------|
:
Then play AverseA or Bverse3B.
:
# chorus #A   *=play 16X
E-----------------------------------|
B----*---*---*---*---*---*---*---*--|
G--10--10--10--10--10--10--10--11---|
D-----------------------------------|
A-----------------------------------|
E-----------------------------------|
# chorus #B   *=play 16X palm-muted
E-----------------------------------|
B-----------------------------------|
G----*---*-------*---*---*-------*--|
D---7--10----*-10---7--10----*--7---|
A---5---8---8---8---5---8---5---5---|
E-----------6---------------3-------|
	  

Full key step upFull key step up
Half key step upHalf key step up
Half key step downHalf key step down
Full key step downFull key step down
Search Paypal
auto scroll beats size up size down change color hide chords drawings
tab show chords e-chords YouTube Clip e-chords hide all tabs e-chords go to top tab