Nofx

home > Nofx

Drugs Are Good Tab

Nofx

Difficulty: BeginnerBeginner

tuner correct add songbook print version text version save to e-mail
chordsukulelecavacokeyboardtabbassdrummharmonicsflute Guitar Pro
chords

Drugs Are Good

  		A=left guitar   B=right guitar   A&B=both
:
# intro #A   !palm-muted!
E---------------------------------------------------------------------------|
B---------------------------------------------------------------------------|
G---------------------------------------------------------------------------|
D---------------------------------------------------------------------------|
A---------------------------------------------------------------------------|
E-----------0-3-4-5-------0-3-4-5-------0-3-4-5-------0-3-4-5-------0-3-0---|
# intro #B   !palm-muted!   *=play 46X              
E---------------------------------------------------------------------------|
B---------------------------------------------------------------------------|
G----*----------------------------------------------------------------------|
D---7-----------------------------------------------------------------------|
A---7-----------------------------------------------------------------------|
E---5---------------------------------------------------------------0-3-0---|
:
# intro2 #A X2   *=play 16X palm-muted with distortion   p=palm-muted
E------------------/p\----------------/p\----------------/p\|-END-1-/p\|END-2|
B-----------------------------------------------------------|----------|-----|
G-----------------------------------------------------------|4---4-----|--*--|
D---7-7-7-5-2-2-2-2-----------------------7-7-7-5-2-2-2-2---|5-5-5-5---|-5---|
A---7-7-7-5-3-3-3-3----7-7-7-5-3-3-3-3----7-7-7-5-3-3-3-3---|5-5-5-5---|-5---|
E---5-5-5-3--------030----------------030-5-5-5-3--------030|3-3-3-3030|-3---|
# intro2 #B X2   *=play 16X palm-muted with distortion   p=palm-muted
E------------------/p\---------1-1-1-1/p\----------------/p\|-END-1-/p\|END-2|
B------------------------------1-1-1-1----------------------|----------|-----|
G----------------------0-0-0-4-2-2-2-2----------------------|4---4-----|--*--|
D---7-7-7-5-2-2-2-2----2-2-2-5-3-3-3-3----7-7-7-5-2-2-2-2---|5-5-5-5---|-5---|
A---7-7-7-5-3-3-3-3----3-3-3-5-3-3-3-3----7-7-7-5-3-3-3-3---|5-5-5-5---|-5---|
E---5-5-5-3--------030-------3-1-1-1-1030-5-5-5-3--------030|3-3-3-3030|-3---|
:
# verse #A X2  *=play 8X   ()=only first time
E-----------------------------------------------------------------|
B----*------------------------------------------------------------|
G---2--------*-------*------2*--------------------------*---------|
D---2-------2-------2-------3-------7-7-7-5-2-2-2-2----5----------|
A---0-------3-------3-------3-------7-7-7-5-3-3-3-3----5----------|
E---------------------------1----0305-5-5-3--------030-3---(030)--|
# verse #B X2  *=play 8X   ()=only first time
E---------------------------1-------------------------------------|
B----*-------*-------*------1-------------------------------------|
G---2-------5-------5-------2*--------------5-5-5-5-----*---------|
D---2-------5-------5-------3-------7-7-7-5-5-5-5-5----5----------|
A---0-------3-------3-------3-------7-7-7-5-3-3-3-3----5----------|
E---------------------------1----0305-5-5-3--------030-3---(030)--|
:
# chorus #A&B   *=play 8X
E----------------------------------------------------------------------------|
B----------------------------------------------------------------------------|
G--------------*------5-5-5------*------3-3-3------*------3-3-3------*-------*
D---3-3-3-555-7-------5-5-5-555-3-------3-3-3-333-2-------3-3-3-333-2-------2|
A---3-3-3-555-7-------3-3-3-555-3-------1-1-1-333-3-------1-1-1-333-3-------3|
E---1-1-1-333-5-------------333-1-------------111-3-------------111-3-------3|
:
Then play AintroAX2 or BintroBX2, AverseAX2 or BverseBX2 and A&BchorusA&B.
>>>>>>>>to next page...
:
:
:
:
:
:
:
:
:
DRUGS ARE GOOD                                                            2/2
:
# outro2 #A   p=palm-muted
E------------------/p\----------------/p\----------------/p\-3---|
B------------------------------------------------------------3---|
G------------------------------------------------------------4---|
D---7-7-7-5-2-2-2-2-----------------------7-7-7-5-2-2-2-2----5---|
A---7-7-7-5-3-3-3-3----7-7-7-5-3-3-3-3----7-7-7-5-3-3-3-3----5---|
E---5-5-5-3--------030----------------030-5-5-5-3--------030-3---|
# outro2 #B   p=palm-muted
E------------------/p\---------1-1-1-1/p\----------------/p\-3---|
B------------------------------1-1-1-1-----------------------3---|
G----------------------0-0-0-4-2-2-2-2-----------------------4---|
D---7-7-7-5-2-2-2-2----2-2-2-5-3-3-3-3----7-7-7-5-2-2-2-2----5---|
A---7-7-7-5-3-3-3-3----3-3-3-5-3-3-3-3----7-7-7-5-3-3-3-3----5---|
E---5-5-5-3--------030-------3-1-1-1-1030-5-5-5-3--------030-3---|
	  

Search Paypal
auto scroll beats size up size down change color hide chords drawings
tab show chords e-chords YouTube Clip e-chords hide all tabs e-chords go to top tab