Nofx

home > Nofx

Day to Daze Tab

Nofx

Difficulty: nolevelnolevel

by 4nub1s

tuner correct add songbook print version text version save to e-mail
chordsukulelecavacokeyboardtabbassdrumsharmonicsflute Guitar Pro
chords

Day to Daze

  		Essa Música eh tocada com 2 guitarras escolha uma =D 
 
A=lead guitar  B=background guitar  A&B=both guitars 
: 
# intro #A    X8 
E------------------| 
B------------------| 
G------------------| 
D------------------| 
A--------------3---| 
E---5-3-0--3-5-----| 
: 
# pre-verse #A  X4     (two last times with different rhythm!) 
E-------------------------------------------------------------------| 
B-------------------------------------------------------------------| 
G------------------10---------------7---------------9---------------| 
D---7--------------10---------------7---------------9---------------| 
A---7---------------8---------------5---------------7---------------| 
E---5---------------------------------------------------------------| 
# pre-verse #B  X4 
E-------------------------------------------------------------------| 
B-------------------------------------------------------------------| 
G---------------5---------------5---------------5------5-7--5---5---| 
D---7--5-7--5-7-----7--5-7--5-7-----7--5-7--5-7-----7---------7-----| 
A-------------------------------------------------------------------| 
E-------------------------------------------------------------------| 
: 
# verse-part #A   *=play 6X       h=hammer-on   \=slide down 
E------------------------------------10h12-12-10h12-12-8\--| 
B----------------------------------------------------------| 
G----*----------*----------*-------------------------------| 
D---7----------3---------10--------------------------------| 
A---7----------3---------10--------------------------------| 
E---5----------1----------8--------------------------------| 
# verse-part #B   *=play 6X 
E----------------------------------------------------------| 
B----------------------------------------------------------| 
G----*----------*----------*----------*--------------------| 
D---7----------3---------10----------5---------------------| 
A---7----------3---------10----------5---------------------| 
E---5----------1----------8----------3---------------------| 
: 
# verse-part2 #A   *=play 6X      h=hammer-on   \=slide down 
E---------------------------------------------10h12-12-17\--| 
B------------------------------------10h12-12---------------| 
G----*----------*----------*--------------------------------| 
D--10----------7----------3---------------------------------| 
A--10----------7----------3---------------------------------| 
E---8----------5----------1---------------------------------| 
# verse-part2 #B    *=play 6X 
E-----------------------------------------------------------| 
B-----------------------------------------------------------| 
G----*----------*----------*----------*---------------------| 
D--10----------7----------3----------5----------------------| 
A--10----------7----------3----------5----------------------| 
E---8----------5----------1----------3----------------------| 
: 
# Chorus #A&B   X3 
E----------------------------------| 
B----------------------------------| 
G----------------------------------| 
D--10-10-7--7-7-7---5-5-3--3-3-3---|                                  
A--10-10-7--7-7-7---5-5-3--3-3-3---| 
E---8--8-5--5-5-5---3-3-1--1-1-1---| 
: 
>>>>>>>>to next page 
: 
: 
DAY TO DAZE                                                               2/2 
: 
# end-Chorus #A      *=play 6-8X 
E----------------------------------------------------| 
B----*-----------------------*-----------------------| 
G--14----------------------14-------------10--9------| 
D--14------------------10--14-------------10--9-10---| 
A--12------------------10--12--------------8--7-10---| 
E-----------------------8------------------------8---| 
# end-Chorus #A      *=play 6-8X 
E----------------------------------------------------| 
B----------------------------------------------------| 
G----*-----------------------*------------10--9------| 
D---7------------------10---7-------------10--9-10---| 
A---7------------------10---7--------------8--7-10---| 
E---5-------------------8---5--------------------8---| 
: 
# verse2-part #A   *=play 6X       h=hammer-on   \=slide down 
E-----------------------------------------------------| 
B-----------------------------------------------------|     During this 
G----*----------*----------*---------------------8\---|     guitarB plays 
D---7----------3---------10----------7h9-9-7h9-9------|     verse-partB 
A---7----------3---------10---------------------------| 
E---5----------1----------8---------------------------| 
: 
# verse2-part2 #A   *=play 6X      h=hammer-on   \=slide down 
E------------------------------------10h12-12-10h12-12-17\--|   During this 
B-----------------------------------------------------------|   guitarB plays 
G----*----------*----------*--------------------------------|   verse-part2B 
D--10----------7----------3---------------------------------| 
A--10----------7----------3---------------------------------| 
E---8----------5----------1---------------------------------| 
: 
Play Chorus and end-Chorus and then you can cool out. 
Tirada by Paulo Sérgio 27.3.03 
 

	  

Search Paypal
auto scroll beats size up size down change color hide chords drawings
tab show chords e-chords YouTube Clip e-chords hide all tabs e-chords go to top tab