Nofx

home > Nofx

Cokie The Clown Tab

Nofx

Difficulty: nolevelnolevel

by gustsilva

tuner correct add songbook print version text version save to e-mail
chordsukulelecavacokeyboardtabbassdrumsharmonicsflute Guitar Pro
chords

Cokie The Clown

  		E|-----------------------|------------------------|------------------------|--------------------------| 
B|-----------------------|------------------------|------------------------|--------------------------| 
G|-15--15--15--15--15--15|--15--15--15--15--15--15|--15--15--15--15--15--15|--15--15--15--15--15--15--| 
D|-15--15--15--15--15--15|--14--14--14--14--14--14|--12--12--12--12--12--12|--14--14--14--14--14--14--| 
A|-13--13--13--13--13--13|--13--13--13--13--13--13|--13--13--13--13--13--13|--13--13--13--13--13--13--| 
E|-----------------------|------------------------|------------------------|--------------------------| 

F              E              F                               F E   A# 
All the way from Palm Springs, just out of detox 
F              E     F                           E            A# 
Show him a warm welcome, let's get some applause 

F                 C 
Greetings all, hello. Welcome to my show 
A                          D                      A# 
I'm sure you'll have fun watching me juggle 
                   F 
8 balls at one time, I'm no fucking mime 
A                    D                         A# 
I play practical jokes, this squirting flower 
                C 
That wasn't flour that blew up your nose 
F                   D                            A# 
It's my special blend of Ex, Coke and K 
                    G 
You should be okay in several hours 

( F  E  F  E      A# ) 

F              E              F              E            A# 
He's got oversized shoes, and ill fitting clothes 
F              E              F                           A# 
That is real blood dripping from his fake red nose 


( Guitarra 2 -El Hefe) 

E|-------|--------------| 
B|-------|--------------| 
G|-------|--------------| 
D|-------|--7-----8---10| (2X)  
A|-8-----|--------------| 
E|-------|--------------| 

E|-------|--------------| 
B|-------|--------------| 
G|-------|--------------| 
D|-------|--7-----8---10| (1X)    
A|-7-----|--------------| 
E|-------|--------------| 

E|-------|--------------| 
B|-------|--------------| 
G|-------|--------------| 
D|-------|--7-----8----7| (1X)    
A|-5-----|--------------| 
E|-------|--------------| 

E|-------|--------------| 
B|-------|--------------| 
G|-------|--------------| 
D|-------|--7-----8---10| (2X)  
A|-8-----|--------------| 
E|-------|--------------| 


E|-------|--------------| 
B|-------|--------------| 
G|-------|--------------| 
D|-------|--7-----8---10| (1X)    
A|-7-----|--------------| 
E|-------|--------------| 

E|-------|--------------| 
B|-------|--------------| 
G|-------|--------------| 
D|-------|--7-----8----7| (1X)    
A|-5-----|--------------| 
E|-------|--------------| 


E|-------|--------------| 
B|-------|--------------| 
G|-------|--------------| 
D|-------|--7-----8---10| (1X)  
A|-8-----|--------------| 
E|-------|--------------| 


E|-------|--------------| 
B|-------|--------------| 
G|-------|--------------| 
D|-------|--7-----8---10| (1X)    
A|-5-----|--------------| 
E|-------|--------------| 


E|-------|--------------| 
B|-------|--------------| 
G|-------|--------------| 
D|-------|--7-----8---10| (2X)    
A|-7-----|--------------| 
E|-------|--------------| 


E|-------|--------------| 
B|-------|--------------| 
G|-------|--------------| 
D|-------|--8-----7----5| (1X)  
A|-8-----|--------------| 
E|-------|--------------| 


E|-------|--------------| 
B|-------|--------------| 
G|-------|--------------| 
D|-------|--8-----7----5| (1X)    
A|-5-----|--------------| 
E|-------|--------------| 


Guitar 1- Melvis 

F             C 
I'm Cokie the Clown 
A                D                   A# 
I will drag you down those 12 giant steps 
           F 
I brought you all presents 
A                   D                     A# 
Against good judgement, but being a good host 
                     C 
You all have been dosed, the kettle corns been laced 
A                         D                     A# 
The punch has been lined you're having a great time 
F                    D             A# 
But you might not recall from the heminol 
                  G 
In the lemonade, Cokie homemade 

( F  E  F  E    A# ) 

F              E              F 
He's the happiest clown with the biggest frown. 
F              E 
He's Cokie the Clown 
	  

Full key step upFull key step up
Half key step upHalf key step up
Half key step downHalf key step down
Full key step downFull key step down
Search Paypal
auto scroll beats size up size down change color hide chords drawings
tab show chords e-chords YouTube Clip e-chords hide all tabs e-chords go to top tab