Nofx

home > Nofx

Can't Get The Stink Out Tab

Nofx

Difficulty: nolevelnolevel

by terr%5Fschmitz

tuner correct add songbook print version text version save to e-mail
chordsukulelecavacokeyboardtabbassdrumsharmonicsflute Guitar Pro
chords

Can't Get The Stink Out

  		 
# intro #B X2 !A ends with pick-slide!   # intro #A X2 #=play 3X  
E-------------------|                    E-------------------| 
B-------------------|                    B--------#---#---#--| 
G----#---#---#---#--|                    G----#--8---7---5---| 
D---5---8---7---5---|                    D---5---8---7---5---| 
A---5---6---5---3---|                    A---5---6---5---3---| 
E---3---6---5---3---|                    E---3---------------| 
: 
# verse #A X2 *=play 6X                  # Chorus #A *=play 6X 
E-----------------------------------|    E-----------------------------------| 
B--------------------*--------------|    B----*------*--------*------*-------| 
G----*-------*------8--------*------|    G---5-------5-------5-------5-------| 
D---5-------5-------8-------8-------|    D---5-------5-------5-------5-------| 
A---5-------5-------6-------8-------|    A---3-------3-------3-------3-------| 
E---3-------3---------------6-------|    E-----------------------------------| 
# verse #B X2 *=play 6X                  # Chorus #B *=play 6X 
E-----------------------------------|    E-----------------------------------| 
B-----------------------------------|    B-----------------------------------| 
G----*-------*-------*-------*------|    G----*-------*-------*-------*------| 
D---5-------5-------8-------8-------|    D---5-------5-------5-------5-------| 
A---5-------5-------6-------8-------|    A---3-------3-------3-------3-------| 
E---3-------3-------6-------6-------|    E---3-------3-------3-------3-------| 
: 
Then play introBX2 (!A plays first note -> pick-slide!) and AverseAX2 or 
BverseBX2. 
: 
# Chorus #A *=play 6X 
E-----------------------------------| 
B----*------*--------*------*-------| 
G---5-------5-------5-------8-------| 
D---5-------5-------5-------8-------| 
A---3-------3-------3-------6-------| 
E-----------------------------------| 
# Chorus #B *=play 6X 
E-----------------------------------| 
B-----------------------------------| 
G----*-------*-------*-------*------| 
D---5-------5-------5-------8-------| 
A---3-------3-------3-------6-------| 
E---3-------3-------3-------6-------| 
: 
Then play AintroAX4 or BintroBX4 (!both end with first note!) 
Tabbed by Jussi Heinonen 05.08.2002. 
?? 
This page was last modified 12:58, 5 August 2005. 
	  

Search Paypal
auto scroll beats size up size down change color hide chords drawings
tab show chords e-chords YouTube Clip e-chords hide all tabs e-chords go to top tab