Nofx

home > Nofx

Augusth 8th Tab

Nofx

Difficulty: BeginnerBeginner

by 4nub1s

tuner correct add songbook print version text version save to e-mail
chordsukulelecavacokeyboardtabbassdrumsharmonicsflute Guitar Pro
chords

Augusth 8th

  		  C       G      Am      G 
E|------------------------------------ 
B|----1------------------------------- 
G|------0-------0----2---------------- 
D|--2-----0---0----2---2------0------- 
A|--3-------2------0---------2-------- 
E|----------3---------------3--------- 
 
    C     G     Am    G 
E|------------------------------ 
B|------------------------------ 
G|--5555------------------------ 
D|--5555--5555--7777--5555------ 
A|--3333--5555--7777--5555------ 
E|--------3333--5555--3333------ 
 
 
    C     G     F    C 
E|-------------------------- 
B|-------------------------- 
G|--5555--------------5555-- 
D|--5555--5555--3333--5555-- 
A|--3333--5555--3333--3333-- 
E|--------3333--1111-------- 
 
   A5 
E|-------------------------- 
B|-------------------------- 
G|--2----------------------- 
D|--22222-33333-55555------- 
A|--0-----3-----5-----22222- 
E|--------1-----3-----0----- 
 
 

	  

Full key step upFull key step up
Half key step upHalf key step up
Half key step downHalf key step down
Full key step downFull key step down
Search Paypal
auto scroll beats size up size down change color hide chords drawings
tab show chords e-chords YouTube Clip e-chords hide all tabs e-chords go to top tab