Noah Gundersen

Topless Dancer

Noah Gundersen

tabs

by  BRUNBLAZKOWSKI

save to print version add songbook text version e-mail correct tuner
chordsukulelecavacokeyboardtabbassdrumsharmonicaflute Guitar Pro
close

there isn't a video lesson for this song

chords

Topless Dancer

	  		
   C   C*  C** G*  G** Am  Em  Fm 
e|------------------------------------| 
B|-1---1---1---1---1---1---0---1------| 
G|-0---0---0---0---0---2---0---1------| 
D|-2---3---0---0---3---2---2---3------| 
A|-3---3---3-----------0---2---3------| 
E|-------------3---3------------------| 


Intro 

   C                                C*       G** 
e|--------------------------------|---------------------------|------------------------------|---------------| 
B|---------------1--------------1-|-------------------------1-|-------------1--------------1-|-------------1-| 
G|---------0--------------0-------|-------0-----------0-------|-------0--------------0-------|-------0-------| 
D|----0h2-----2--------2-----2----|----3-----------3-----3----|----3-----3--------3-----3----|----3-----3----| 
A|-3----------------3-------------|-3--------0----------------|------------------------------|---------------| 
E|--------------------------------|-------------3-------------|-3--------------3-------------|-3-------------| 


Verse  

"If you lived in the shadow of the mountain..." 
    C                                 C*                              G* 
e|---------------------------------|-------------------------------|-------------------------------| 
B|----------------1--------------1-|--------------1--------------1-|--------------1--------------1-| 
G|----------0--------------0-------|--------0--------------0-------|--------0--------------0-------| 
D|-----0h2-----2--------2-----2----|-----3-----3--------3-----3----|-----0-----0--------0-----0----| 
A|--3----------------3-------------|--3--------------3-------------|-------------------------------| 
E|---------------------------------|-------------------------------|--3--------------3-------------| 

   C 
e|---------------------------------| 
B|----------------1--------------1-| 
G|----------0--------------0-------| 
D|-----0h2-----2--------2-----2----| 
A|--3----------------3-------------| 
E|---------------------------------| 

  
   Am                                 C*                              G* 
e|-------------------------------|-------------------------------|-------------------------------| 
B|--------------1--------------1-|--------------1--------------1-|--------------1--------------1-| 
G|--------2--------------0-------|--------0--------------0-------|--------0--------------0-------| 
D|-----2-----2--------2-----2----|-----3-----3--------3-----3----|-----0-----0--------0-----0----| 
A|--0--------------0-------------|--3--------------3-------------|-------------------------------| 
E|-------------------------------|-------------------------------|--3--------------3-------------| 

    C 
e|---------------------------------| 
B|----------------1--------------1-| 
G|----------0--------------0-------| 
D|-----0h2-----2--------2-----2----| 
A|--3----------------3-------------| 
E|---------------------------------| 


Pre-Chorus  

"If that night you slept with strangers in their houses..." 
    Am                              Em                              C* 
e|-------------------------------|-------------------------------|-------------------------------| 
B|--------------1--------------1-|--------------0--------------0-|--------------1--------------1-| 
G|--------2--------------2-------|--------0--------------0-------|--------0--------------3-------| 
D|-----2-----2--------2-----2----|-----2-----2--------2-----2----|-----3-----3--------3-----3----| 
A|--0--------------0-------------|--2--------------2-------------|--3--------------3-------------| 
E|-------------------------------|-------------------------------|-------------------------------| 

    Fm 
e|-------------------------------| 
B|--------------1--------------1-| 
G|--------1--------------1-------| 
D|-----3-----3--------3-----3----| 
A|--3--------------3-------------| 
E|-------------------------------| 

    C                               G                               C* 
e|-------------------------------|-------------------------------|-------------------------------| 
B|--------------1--------------1-|--------------1--------------1-|--------------1--------------1-| 
G|--------0--------------0-------|--------0--------------0-------|--------0--------------0-------| 
D|-----2-----2--------2-----2----|-----0-----0--------0-----0----|-----3-----3--------3-----3----| 
A|--3--------------3-------------|-------------------------------|--3--------------3-------------| 
E|-------------------------------|--3--------------3-------------|-------------------------------| 

    C** 
e|-------------------------------| 
B|--------------1--------------1-| 
G|--------0--------------0-------| 
D|-----0-----0--------0-----0----| 
A|--3--------------3-------------| 
E|-------------------------------| 


Verse  
(Same as first verse)  

"She sang to me the rhythm of autumn..." 
    C                                 C*                              G* 
e|---------------------------------|-------------------------------|-------------------------------| 
B|----------------1--------------1-|--------------1--------------1-|--------------1--------------1-| 
G|----------0--------------0-------|--------0--------------0-------|--------0--------------0-------| 
D|-----0h2-----2--------2-----2----|-----3-----3--------3-----3----|-----0-----0--------0-----0----| 
A|--3----------------3-------------|--3--------------3-------------|-------------------------------| 
E|---------------------------------|-------------------------------|--3--------------3-------------| 

   C 
e|---------------------------------| 
B|----------------1--------------1-| 
G|----------0--------------0-------| 
D|-----0h2-----2--------2-----2----| 
A|--3----------------3-------------| 
E|---------------------------------| 

  
   Am                                 C*                              G* 
e|-------------------------------|-------------------------------|-------------------------------| 
B|--------------1--------------1-|--------------1--------------1-|--------------1--------------1-| 
G|--------2--------------0-------|--------0--------------0-------|--------0--------------0-------| 
D|-----2-----2--------2-----2----|-----3-----3--------3-----3----|-----0-----0--------0-----0----| 
A|--0--------------0-------------|--3--------------3-------------|-------------------------------| 
E|-------------------------------|-------------------------------|--3--------------3-------------| 

    C 
e|---------------------------------| 
B|----------------1--------------1-| 
G|----------0--------------0-------| 
D|-----0h2-----2--------2-----2----| 
A|--3----------------3-------------| 
E|---------------------------------| 


Pre-Chorus  
(Same as first Pre-Chorus)  

"I found her as a topless dancer..." 
    Am                              Em                              C* 
e|-------------------------------|-------------------------------|-------------------------------| 
B|--------------1--------------1-|--------------0--------------0-|--------------1--------------1-| 
G|--------2--------------2-------|--------0--------------0-------|--------0--------------3-------| 
D|-----2-----2--------2-----2----|-----2-----2--------2-----2----|-----3-----3--------3-----3----| 
A|--0--------------0-------------|--2--------------2-------------|--3--------------3-------------| 
E|-------------------------------|-------------------------------|-------------------------------| 

    Fm 
e|-------------------------------| 
B|--------------1--------------1-| 
G|--------1--------------1-------| 
D|-----3-----3--------3-----3----| 
A|--3--------------3-------------| 
E|-------------------------------| 

    C                               G                               C* 
e|-------------------------------|-------------------------------|-------------------------------| 
B|--------------1--------------1-|--------------1--------------1-|--------------1--------------1-| 
G|--------0--------------0-------|--------0--------------0-------|--------0--------------0-------| 
D|-----2-----2--------2-----2----|-----0-----0--------0-----0----|-----3-----3--------3-----3----| 
A|--3--------------3-------------|-------------------------------|--3--------------3-------------| 
E|-------------------------------|--3--------------3-------------|-------------------------------| 

    C** 
e|-------------------------------| 
B|--------------1--------------1-| 
G|--------0--------------0-------| 
D|-----0-----0--------0-----0----| 
A|--3--------------3-------------| 
E|-------------------------------| 


Chorus  

"Hold tight, dont leave the light on for me..." 
   C                                  C*                              G* 
e|---------------------------------|-------------------------------|-------------------------------| 
B|----------------1--------------1-|--------------1--------------1-|--------------1--------------1-| 
G|----------0--------------0-------|--------0--------------0-------|--------0--------------0-------| 
D|-----0h2-----2--------2-----2----|-----3-----3--------3-----3----|-----0-----0--------0-----0----| 
A|--3----------------3-------------|--3--------------3-------------|-------------------------------| 
E|---------------------------------|-------------------------------|--3--------------3-------------| 

   C 
e|---------------------------------| 
B|----------------1--------------1-| 
G|----------0--------------0-------| 
D|-----0h2-----2--------2-----2----| 
A|--3----------------3-------------| 
E|---------------------------------| 

  
   Am                                 C*                              G* 
e|-------------------------------|-------------------------------|-------------------------------| 
B|--------------1--------------1-|--------------1--------------1-|--------------1--------------1-| 
G|--------2--------------0-------|--------0--------------0-------|--------0--------------0-------| 
D|-----2-----2--------2-----2----|-----3-----3--------3-----3----|-----0-----0--------0-----0----| 
A|--0--------------0-------------|--3--------------3-------------|-------------------------------| 
E|-------------------------------|-------------------------------|--3--------------3-------------| 

    Am 
e|-------------------------------| 
B|--------------1--------------1-| 
G|--------2--------------2-------| 
D|-----2-----2--------2-----2----| 
A|--0--------------0-------------| 
E|-------------------------------| 

    C*                              C** 
e|-------------------------------|----------------| 
B|--------------1--------------1-|--------------1-| 
G|--------0--------------0-------|--------0-------| 
D|-----3-----3--------3-----3----|-----0-----0----| 
A|--3--------------3-------------|--3-------------| 
E|-------------------------------|----------------| 


Instrumental  
(same as intro) 

   C                                C*       G** 
e|--------------------------------|---------------------------|------------------------------|---------------| 
B|---------------1--------------1-|-------------------------1-|-------------1--------------1-|-------------1-| 
G|---------0--------------0-------|-------0-----------0-------|-------0--------------0-------|-------0-------| 
D|----0h2-----2--------2-----2----|----3-----------3-----3----|----3-----3--------3-----3----|----3-----3----| 
A|-3----------------3-------------|-3--------0----------------|------------------------------|---------------| 
E|--------------------------------|-------------3-------------|-3--------------3-------------|-3-------------| 


Verse  
(slight change at the end)  

"I learned to ask the Lord for forgiveness..." 
    C                                 C*                              G* 
e|---------------------------------|-------------------------------|-------------------------------| 
B|----------------1--------------1-|--------------1--------------1-|--------------1--------------1-| 
G|----------0--------------0-------|--------0--------------0-------|--------0--------------0-------| 
D|-----0h2-----2--------2-----2----|-----3-----3--------3-----3----|-----0-----0--------0-----0----| 
A|--3----------------3-------------|--3--------------3-------------|-------------------------------| 
E|---------------------------------|-------------------------------|--3--------------3-------------| 

   C 
e|---------------------------------| 
B|----------------1--------------1-| 
G|----------0--------------0-------| 
D|-----0h2-----2--------2-----2----| 
A|--3----------------3-------------| 
E|---------------------------------| 

  
   Am                                 C*                              G* 
e|-------------------------------|-------------------------------|-------------------------------| 
B|--------------1--------------1-|--------------1--------------1-|--------------1--------------1-| 
G|--------2--------------0-------|--------0--------------0-------|--------0--------------0-------| 
D|-----2-----2--------2-----2----|-----3-----3--------3-----3----|-----0-----0--------0-----0----| 
A|--0--------------0-------------|--3--------------3-------------|-------------------------------| 
E|-------------------------------|-------------------------------|--3--------------3-------------| 

    C                here's the slight change 
e|---------------------------------| 
B|----------------1--------------1-| 
G|----------0--------------0-------| 
D|-----0h2-----2--------0-----0----| 
A|--3----------------2-------------| 
E|---------------------------------| 


Pre-Chorus  
(Same as first Pre-Chorus)  

"When I woke up in the morning from a good, good dream..." 
    Am                              Em                              C* 
e|-------------------------------|-------------------------------|-------------------------------| 
B|--------------1--------------1-|--------------0--------------0-|--------------1--------------1-| 
G|--------2--------------2-------|--------0--------------0-------|--------0--------------3-------| 
D|-----2-----2--------2-----2----|-----2-----2--------2-----2----|-----3-----3--------3-----3----| 
A|--0--------------0-------------|--2--------------2-------------|--3--------------3-------------| 
E|-------------------------------|-------------------------------|-------------------------------| 

    Fm 
e|-------------------------------| 
B|--------------1--------------1-| 
G|--------1--------------1-------| 
D|-----3-----3--------3-----3----| 
A|--3--------------3-------------| 
E|-------------------------------| 

    C                               G                               C* 
e|-------------------------------|-------------------------------|-------------------------------| 
B|--------------1--------------1-|--------------1--------------1-|--------------1--------------1-| 
G|--------0--------------0-------|--------0--------------0-------|--------0--------------0-------| 
D|-----2-----2--------2-----2----|-----0-----0--------0-----0----|-----3-----3--------3-----3----| 
A|--3--------------3-------------|-------------------------------|--3--------------3-------------| 
E|-------------------------------|--3--------------3-------------|-------------------------------| 

    C** 
e|-------------------------------| 
B|--------------1--------------1-| 
G|--------0--------------0-------| 
D|-----0-----0--------0-----0----| 
A|--3--------------3-------------| 
E|-------------------------------| 


Chorus  
(Different than first Chorus)  

"So to the priests and the prophets..." 
   C                                  C*                              G* 
e|---------------------------------|-------------------------------|-------------------------------| 
B|----------------1--------------1-|--------------1--------------1-|--------------1--------------1-| 
G|----------0--------------0-------|--------0--------------0-------|--------0--------------0-------| 
D|-----0h2-----2--------2-----2----|-----3-----3--------3-----3----|-----0-----0--------0-----0----| 
A|--3----------------3-------------|--3--------------3-------------|-------------------------------| 
E|---------------------------------|-------------------------------|--3--------------3-------------| 

    Am 
e|-------------------------------| 
B|--------------1--------------1-| 
G|--------2--------------2-------| 
D|-----2-----2--------2-----2----| 
A|--0--------------0-------------| 
E|-------------------------------| 

   C*        
e|-------------------------------|-------------------------------| 
B|--------------1--------------1-|--------------1--------------1-| 
G|--------0--------------0-------|--------0--------------0-------| 
D|-----3-----3--------3-----3----|-----3-----3--------3-----3----| 
A|--3--------------3-------------|--3--------------3-------------| 
E|-------------------------------|-------------------------------| 

    Em      
e|-------------------------------|-------------------------------| 
B|--------------0--------------0-|--------------0--------------0-| 
G|--------0--------------0-------|--------0--------------0-------| 
D|-----2-----2--------2-----2----|-----2-----2--------2-----2----| 
A|--2--------------2-------------|--2--------------2-------------| 
E|-------------------------------|-------------------------------| 

    C*                              C** 
e|-------------------------------|----------------| 
B|--------------1--------------1-|--------------1-| 
G|--------0--------------0-------|--------0-------| 
D|-----3-----3--------3-----3----|-----0-----0----| 
A|--3--------------3-------------|--3-------------| 
E|-------------------------------|----------------| 


Outro 

   C                                C*       G** 
e|--------------------------------|---------------------------|------------------------------| 
B|---------------1--------------1-|-------------------------1-|-------------1--------------1-| 
G|---------0--------------0-------|-------0-----------0-------|-------0--------------0-------| 
D|----0h2-----2--------2-----2----|----3-----------3-----3----|----3-----3--------3-----3----| 
A|-3----------------3-------------|-3--------0----------------|------------------------------| 
E|--------------------------------|-------------3-------------|-3--------------3-------------| 

   G**                 C**(slowly strum and hammer on the D string after)       
e|----------------------------| 
B|---------------------1------| 
G|--------0--------0---0------| 
D|-----3--------3------0h2----| 
A|---------------------3------| 
E|--3--------3----------------| 

************************************ 

| h   Hammer-on 

************************************ 
		  

Full key step upFull key step up
Half key step upHalf key step up
Half key step downHalf key step down
Full key step downFull key step down
auto scroll beats size up size down change color hide chords drawings
tab show chords e-chords YouTube Clip e-chords hide all tabs e-chords go to top tab

share