Noah Gundersen

The Current State Of Things

Noah Gundersen

tabs

by  TARIKIKE

save to print version add songbook text version e-mail correct tuner
chordsukulelecavacokeyboardtabbassdrumsharmonicaflute Guitar Pro
close

there isn't a video lesson for this song

chords

The Current State Of Things

	  		
Intro and Verses 
e|-------0-----------0-----------0------------0--------------------------------| 
B|----0-----0--0--0-----0--0--0-----0--0--0-----0---0--------------------------| 
G|-----------------------------------------------------------------------------| 
D|--2--2--2--2--4--4--6--6-----------------------------------------------------| 
A|---------------------------4--4--4--4--6--6--7--7----------------------------| 
E|-----------------------------------------------------------------------------| 

e|------0-----------0-----------0-----------0----------------------------------| 
B|---0-----0--0--0-----0--0--0----0--0--0-----0--0--0--------------------------| 
G|-----------------------------------------------------------------------------| 
D|-----------------------------------------------------------------------------| 
A|-0--0--0--0--2--2--2--2-0--0--0--0--0--2--2--2--2----------------------------| 
E|-----------------------------------------------------------------------------| 

Do that twice for the intro and its the same guitar part for the verses. 

Chorus 
e|------0-----------0------------0-----------0----------------------------------| 
B|---0-----0--0--0-----0--0--0-----0--0--0------0--0----------------------------| 
G|------------------------------------------------------------------------------| 
D|------------------------------------------------------(X4)--------------------| 
A|-0--0--0--0--2--2--2--2--4--4--4--4--2--2--2--2-------------------------------| 
E|------------------------------------------------------------------------------| 

verse 2 

Pre Chorus 
e|------0-----------0-----------0-----------0----------------------------------| 
B|---0-----0--0--0-----0--0--0-----0--0--0-----0--0----------------------------| 
G|-----------------------------------------------------------------------------| 
D|--------------------------------------------------------(X2)-----------------| 
A|-0--0--0--0--0--0--0--0--2--2--2--2--2--2--2--2------------------------------| 
E|-----------------------------------------------------------------------------| 

Bridge (guitar and violin only) 
e|--0--------0-------0-------0-----------------------------------------------------| 
B|--0--------0-------0-------0-----------------------------------------------------| 
g| - 9-(X16)- 13-(X16)- 2-(X16)- 4-(X16)-------------------------------------------| 
d|--9-------13-------2-------4-----------------------------------------------------| 
a|--7-------11-------0-------2-----------------------------------------------------| 
E|---------------------------------------------------------------------------------| 

Do the bridge 4X soft strumming. And then 2X hard strumming 

Chorus (hard strumming with loud singing) 
e|-----------------------------------------------------------------------------| 
B|-----------------------------------------------------------------------------| 
G|--2---4---6------------------------------------------------------------------| 
D|--2---4---6---(X4)-----------------------------------------------------------| 
A|--0---2---4------------------------------------------------------------------| 
E|-----------------------------------------------------------------------------| 

Outro is same as intro guitar part. 

Listen to the song to hear strumming patterns and such. 
		  

auto scroll beats size up size down change color hide chords drawings
tab show chords e-chords YouTube Clip e-chords hide all tabs e-chords go to top tab

share