No Fun At All

Beat 'Em Down

No Fun At All

tabs Beginner beginner

by  PAPAPA

save to print version add songbook text version e-mail correct tuner
chordsukulelecavacokeyboardtabbassdrumsharmonicaflute Guitar Pro
close

there isn't a video lesson for this song

chords

Beat 'Em Down

Year: 1995 -

(Ingemar Jansson/Mikael Danielsson)

	  		TABBED BY: Drunkrock  
  
Intro (guitar 1)	(X means palm mute)  
e|---------------------------------------|-------|  
B|---------------------------------------|-------|  
G|---------------------------------------|-------|  
D|---------------------------------------|-------|  
A|--3-3-3-0---6-6-6-6---5-5-5-5-5-5-5-0--|---X---|  
E|---------------------------------------|-------|  
  
Intro (Guitar 2)  
e|------------------|-----|  
B|------------------|-----|  
G|------------------|-----|  
D|------------------|-----|  
A|--14-14-14-14-14--|--X--|  
E|------------------|-----|  
  
Riff 1 (Both Guitars)  
e|---------------------------------|  
B|---------------------------------|  
G|---------------------------------|  
D|--------10-10----------8-8-------|  
A|--5-5----8--8--10-10---6-6--5-5--|  
E|--3-3-----------8--8--------3-3--|  
  
This is played a few times.  
Riff 2  
e|---------------------------------------------|-------|  
B|---------------------------------------------|-------|  
G|---------------------------------------------|-------|  
D|-------------------8->-10-10-10--8-10--8-10--|---X---|  
A|-10-10-10--8-10----6->--8--8--8--6--8--6--8--|---X---|  
E|--8--8--8--6--8------------------------------|---X---|  
  
Riff 3 (Verse)  
e|-----------------------------|  
B|-----------------------------|  
G|-----------------------------|  
D|--5-5-5--8-8-8---------8-----|  
A|--3-3-3--6-6-6--5-5-5--6--8--|  
E|----------------3-3-3-----6--|  
  
Riff 4 (Chorus)  
e|---------------------------------|  
B|---------------------------------|  
G|---------------------------------|  
D|------------8-8-8----------8-----|  
A|-10-10-10---6-6-6---6-6-6--6--8--|  
E|--8--8--8-----------4-4-4-----6--|  
  
Riff 4 (Cont.)  
e|-------------------------------|  
B|-------------------------------|  
G|-------------------------------|  
D|------------8-8-8--------------|  
A|-10-10-10---6-6-6--6-6-6--8-8--|  
E|--8--8--8----------4-4-4--6-6--|  
  
Riff 5 (After Chorus)  
e|-----------------------------------------|  
B|-----------------------------------------|  
G|-----------------------------------------|  
D|----------------------8--8--8------------|  
A|-10-10-10---6--6--6---6--6--6---8--8--8--|  
E|--8--8--8---4--4--4-------------6--6--6--|  
   Down        Down         yeah yeah yeah  
  
Riff 6 (After Riff 5 2nd Time)  
e|-----------------------------------------------------------|  
B|-----------------------------------------------------------|  
G|----------------------------------10-----9-----------------|  
D|--5-5-5--8--5---8-8-8-7-7-7-----------------------8--5--8--|  
A|--3-3-3--6--3---6-6-6-5-5-5---8-8----7-7---6-6-6--6--3--6--|  
E|-----------------------------------------------------------|  
  
Last Chord  
e|-----|  
B|-----|  
G|-----|  
D|--5--|  
A|--3--|  
E|-----|  
  
===============================================================  
  
  
  


		  

See also:

tabs Blind Melon - No Rain tabs Billy Idol - White Wedding tabs Santana - Maria Maria tabs Heart - Barracuda tabs Eric Clapton - Hey, Hey tabs Deep Purple - Smoke On The Water (Easy Intro)
e-chords

Other versions:

tabs No Fun At All - Beat 'Em Down
auto scroll beats size up size down change color hide chords drawings
tab show chords e-chords YouTube Clip e-chords hide all tabs e-chords go to top tab

share