No Doubt

home > No Doubt

Hey you Tab

No Doubt

Difficulty: BeginnerBeginner

tuner correct add songbook print version text version save to e-mail
chordsukulelecavacokeyboardtabbassdrumsharmonicsflute Guitar Pro
chords

Hey you

Year: 2003 - Album: Boom Box - Importado

  		 
|--3--| =triplet 
*----- =harmonic 
~ =trill(quick repeated hammer on and pull off) 
 
intro: 
sitar solo then play C chord 
 
verse & chorus: 
      D           A 
e----------------------------------- 
B--------7------------------------- 
G--------7------------------------- 
D--------7---------------------7-- 
A---5---5----------------7------- 
E--------------5--5--5------------ 
 
every once in a while, tom throws in harmonics: 
        *------------------- 
e----12------------------- 
B--------12--------------- 
G-------------12---------- 
D------------------(12)--- 
A-------------------------- 
E-------------------------- 
 
       |-----3-------|-----3---------| 
e------2---3---5----3----2---x-- 
B-----2----3---5---3----2---3-- 
G-----------------------------0-- 
D--------------------------------- 
A--------------------------------- 
E---------------------------------- 
in a plastic world of make-believe 
 
solo (the verse/chorus is repeated in backround): 
    |---3----| 
e--------------5---------5--5----------5--5------------------------- 
B------7--8----------7-------------7---------8--7--5--------7----- 
G---7-------------7-------------7------------------------7---------- 
D-------------------------------------------------------------------- 
A-------------------------------------------------------------------- 
E-------------------------------------------------------------------- 
 
    |----3----|                       {  -----------x2---------} 
e-5--7--8--7--5----5---------|---------5----------------|--------------------------------------------5--7--8--10--12--| 
B-----------------8----7--5---|--7--8------8--7--5-----|----------------------------------5--7--8----------------------| 
G------------------------------|----------------------7--|---5~4------4--5----4--5--7----------------------------------| 
D------------------------------|-------------------------|----------7--------7--------------------------------------------| 
A------------------------------|--------------------------|----------------------------------------------------------------| 
E------------------------------|--------------------------|----------------------------------------------------------------|  
   
 
_______________________________________________________ 
Contribuição: Luciana Hidemi Santana Nomura([email protected]) 
	  

Full key step upFull key step up
Half key step upHalf key step up
Half key step downHalf key step down
Full key step downFull key step down
Search Paypal
auto scroll beats size up size down change color hide chords drawings
tab show chords e-chords YouTube Clip e-chords hide all tabs e-chords go to top tab