Nino Rota

O Poderoso Chef„o

Nino Rota

tabs Easy easy

by  HEITOR MALZONE

save to print version add songbook text version e-mail correct tuner
chordsukulelecavacokeyboardtabbassdrumsharmonicaflute Guitar Pro
close

there isn't a video lesson for this song

chords

O Poderoso Chef„o

	  		-------------------------------------------------------| 
-------------------------------------------------------| 
-------------------------------------------------------| 
-------------------------------------------------------| 
---------------------------------------------5-4-3-----| 
-0-5-8-7-5-8-5-7-5-1-3-0---0-5-8-7-5-8-5-7-5-----------| 
 
 
-------------------------------------------------------| 
-------------------------------------------------------| 
-------------------------------------------------------| 
-7----------7------------------------------------------| 
---6-----------6--------------------6-5-5-8-5-3-3-6-3-5| 
----5-7----------4-5---5-5-3-2--7-5--------------------| 
 

		  

auto scroll beats size up size down change color hide chords drawings
tab show chords e-chords YouTube Clip e-chords hide all tabs e-chords go to top tab

share