Nim Vind

Killer Creature Double Feature

Nim Vind

tabs

by  IRONPOWER4EVER

save to print version add songbook text version e-mail correct tuner
chordsukulelecavacokeyboardtabbassdrumsharmonicaflute Guitar Pro
close

there isn't a video lesson for this song

chords

Killer Creature Double Feature

	  		

Intro/Verse: 

e|--------------------------------------------| 
B|--------------------------------------------| 
G|-8--8-8---8--8-8----------------------------| 
D|-8--8-8---8--8-8---6--6-6---10-10-10--------| 
A|-6--6-6---6--6-6---6--6-6---10-10-10--------| 
E|-------------------4--4-4---8--8--8---------| 

e|--------------------------| 
B|--------------------------| 
G|--------------------------| 
D|--6-----------8-----------| 
A|--6-(x8)------8-(x8)------| 
E|--4-----------6-----------| 
    .           . 

Chorus: 

e|-------------------------------------| 
B|-------------------------------------| 
G|-8--7-7--5-5-------------------------| 
D|-8--7-7--5-5--8-8--6-------8---------| 
A|-6--5-5--3-3--8-8--6-(x8)--8-(x8)----| 
E|--------------6-6--4-------6---------| 
                     .       . 

Bridge: 

e|-------------------------------------| 
B|-------------------------------------| 
G|-------------------------------------| 
D|----------5-5------------------------| 
A|--6-6-8-8-----6-6-5-5-8-8-6-6-5-5----| 
E|-------------------------------------| 
    . . . . . . . . . . . . . . . . 

e|------------------------------| 
B|------------------------------| 
G|--5-5-5-5-5-5--3-3-3-3-3-3----| 
D|--5-5-5-5-5-5--3-3-3-3-3-3----| 
A|--3-3-3-3-3-3--1-1-1-1-1-1----| 
E|------------------------------| 
      . .          . . 

e|---------------------------------------------------| 
B|---------------------------------------------------| 
G|--8--8--10-10-12-12-13-13-12-12-10-10-8--8--7--7---| 
D|---------------------------------------------------| 
A|--6--6--8--8--10-10-11-11-10-10-8--8--6--6--5--5---| 
E|---------------------------------------------------| 
		  

See also:

tabs Scalene - Milhares Como Eu tabs Deep Purple - Never A Word tabs Deep Purple - Smoke On The Water (Intro + solo 01) tabs Ira! - Flerte Fatal (intro e solo) tabs Deep Purple - Deep Purple - Smoke On The Water tabs Deep Purple - Burn
e-chords

Other versions:

tabs Nim Vind - Killer Creature Double Feature
auto scroll beats size up size down change color hide chords drawings
tab show chords e-chords YouTube Clip e-chords hide all tabs e-chords go to top tab

share