Nightwish

Nemo (ver. 3)

Nightwish

tabs

by  JANDSON

save to print version add songbook text version e-mail correct tuner
chordsukulelecavacokeyboardtabbassdrumsharmonicaflute Guitar Pro
close

there isn't a video lesson for this song

chords

Nemo (ver. 3)

	  		Intro :D5,D5,F5,G5 
GUITARRA 
e|--10- 10-8-10----10- 10-8-10---8 8-10--------| 
b|----------10----------------10-8-------------| 
G|--------------------10----------10-9---------| 
D|--------------------------------------10--12-| 
A|---------------------------------------------| 
E|---------------------------------------------| 
 
1ªestrofe nessa seqüência: 
D5, %, %,%,%,C5,G5,F5,C5 
 
Pré-Refrão:  
D5,%,%,%,%,G5,F5,Bb5,C5 
 
Refrão: 
 
D5,%,F5,C5 
 
Solo:Base Refrão
 
Intro Piano : 
e|-----------------------------3-----------| 
B|-----------------------------------------| 
G|-7-7-5-7---7-7-5-7---5-5-3-5---5-3-2-----|   
D|---------7---------3-----------------5-3-| 
A|-----------------------------------------|  
E|-----------------------------------------|	 
 
This is me for forever 
One of the lost ones 
The one without a name 
Without an honest heart as compass 
 
This is me for forever 
One without a name 
These lines the last endeavor 
To find the missing lifeline 
 
Oh how I wish 
For soothing rain 
All I wish is to dream again 
My loving heart  
Lost in the dark 
For hope I`d give my everything 
Oh how I wish 
For soothing rain 
Oh how I wish to dream again 
Once and for all 
And all for once 
Nemo my name forevermore 
 
My flower, withered between 
The pages 2 and 3 
The once and forever bloom gone with my sins 
 
Walk the dark path  
Sleep with angels 
Call the past for help 
Touch me with your love 
And reveal to me my true name 
 
Oh, how I wish... 
 
Nemo sailing home 
Nemo letting go 
 
Oh, how i wish... 
 
Obs: % :é  o sinal de repetição 
 
by: JaNdSoN 
[email protected] 
		  

Full key step upFull key step up
Half key step upHalf key step up
Half key step downHalf key step down
Full key step downFull key step down
hide glossary

See also:

tabs Nightwish - Dark Chest Of Wonders tabs HIM - And Love Said No tabs HIM - And Love Said No (ver. 2) tabs HIM - You Are The One tabs HIM - The Beginning Of The End tabs Apocalyptica - Hall Of The Mountain King
e-chords

Other versions:

tabs Nightwish - Nemo tabs Nightwish - Nemo (intro) tabs Nightwish - Nemo (ver. 2) tabs Nightwish - Nemo (ver. 3) tabs Nightwish - Nemo Solo
auto scroll beats size up size down change color hide chords drawings
tab show chords e-chords YouTube Clip e-chords hide all tabs e-chords go to top tab

share