Nightwish

Nemo (ver. 2)

Nightwish

tabs

by  AMY_LEE

save to print version add songbook text version e-mail correct tuner
chordsukulelecavacokeyboardtabbassdrumsharmonicaflute Guitar Pro
close

there isn't a video lesson for this song

chords

Nemo (ver. 2)

	  		Afinação: D A D G B E (dropped-d tunning) - afinar a 6ª corda E (mi) 
 um tom abaixo, para ficar em D (ré) 
 
introdução 
 
    D5                                              
e|--------------------------------------------------| 
B|--------------------------------------------------| 
G|--------------------------------------------------| 
D|--------------------------------------------------| 
A|--0--0--0--0--0--0--0--0--0--0--0--0--0--0--0--0--| 
D|--0--0--0--0--0--0--0--0--0--0--0--0--0--0--0--0--| 
 
    F5                      C5/F 
e|--------------------------------------------------| 
B|--------------------------------------------------| 
G|--------------------------------------------------| 
D|--------------------------5--5--5--5--5--5--5--5--| 
A|--3--3--3--3--3--3--3--3--3--3--3--3--3--3--3--3--| 
D|--3--3--3--3--3--3--3--3--3--3--3--3--3--3--3--3--| 
 
Refrão 
     D5 Dsus2  F   C5/F 
e|----------------------| 
B|----------------------| 
G|----------------------| 
D|---0----2----3----5---| 
A|---0----0----3----3---| 
D|---0----0----3----3---| 
 
verso 2 
 
       D5                      E5 
e|-...-------------------------------------------------| 
B|-...-------------------------------------------------| 
G|-...-------------------------------------------------| 
D|-...-------------------------------------------------| 
A|-...-0--0--0--0--0--0--0--0--2--2--2--2--2--2--2--2--| 
D|-...-0--0--0--0--0--0--0--0--2--2--2--2--2--2--2--2--| 
    pm ______________________________________________ 
 
    G5                      F5             G5 
e|--------------------------------------------------| 
B|--------------------------------------------------| 
G|--------------------------------------------------| 
D|-----------------------------------------5--5--5--| 
A|--5--5--5--5--5--5--5--5--3--3--3--3--3--5--5--5--| 
D|--5--5--5--5--5--5--5--5--3--3--3--3--3--5--5--5--| 
 pm _____________________________________ 
 
    F5 
e|--------------------------------------------------| 
B|--------------------------------------------------| 
G|--------------------------------------------------| 
D|--------------------------------------------------| 
A|--3--3--3--3--3--3--3--3--3--3--3--3--3--3--3--3--| 
D|--3--3--3--3--3--3--3--3--3--3--3--3--3--3--3--3--| 
 pm ______________________________________________ 
 
 
e|--------------------------------------------------| 
B|--------------------------------------------------| 
G|--------------------------------------------------| 
D|--------------------------------------------------| 
A|--3--3--3--3--3--3--3--3--3--3--3--3--3--3--3--3--| 
D|--3--3--3--3--3--3--3--3--3--3--3--3--3--3--3--3--| 
 pm ______________________________________________ 
 
   Bb5                      F5 
e|--------------------------------------------------| 
B|--------------------------------------------------| 
G|--------------------------------------------------| 
D|--3-----------------------------------------------| 
A|--1--1--1--1--1--1--1--1--3-----------------------| 
D|--------------------------3--3--3--3--3--3--3--3--| 
 pm   ____________________     ___________________ 
 
    Bb5                     D#5 
e|--------------------------------------------------| 
B|--------------------------------------------------| 
G|--------------------------------------------------| 
D|--3-----------------------------------------------| 
A|--1--1--1--1--1--1--1--1--1--1--1--1--1--1--1--1--| 
D|--------------------------1--1--1--1--1--1--1--1--| 
 pm    ___________________ 
 
 
Refrão 
 
     D5 Dsus2  F    C5/F 
e|----------------------| 
B|----------------------| 
G|----------------------| 
D|---0----2----3----5---| 
A|---0----0----3----3---| 
D|---0----0----3----3---| 
 
     D5 Dsus2  F    C5/F 
e|----------------------| 
B|----------------------| 
G|----------------------| 
D|---0----2----3----5---| 
A|---0----0----3----3---| 
D|---0----0----3----3---| 
 
     D5       C5/F 
e|----------------------| 
B|----------------------| 
G|----------------------| 
D|---0---------5--------| 
A|---0---------3--------| 
D|---0---------3--------| 
 
     D5 
e|----------------------| 
B|----------------------| 
G|----------------------| 
D|---0------------------| 
A|---0------------------| 
D|---0------------------| 
 
fim do Refrão 
 
    D5                                             F5 G5 F5 E5 
e|----------------------------------------------------------| 
B|----------------------------------------------------------| 
G|----------------------------------------------------------| 
D|-------------------------------------------------3-5-3-2--| 
A|---0--------0-0-0-0-------0----------0-0-0-0-----3-5-3-2--| 
E|---0--------0-0-0-0-------0----------0-0-0-0-----3-5-3-2--| 
  pm          _______                  _______ 
 
                                               4x   | F5 C5/F|  
e|--------------------------------------------------|--------| 
B|--------------------------------------------------|--------| 
G|--------------------------------------------------|--------| 
D|--------------------------------------------------|--3--5--| 
A|--0--------0--0-----0--0----------------------0---|--3--3--| 
D|--0--0--0--0--0--0--0--0----0--0--0--0--0--0--0---|--3--3--| 
 pm    ____        _          _________________ 
 
solo 
 
e|------------------------------------------------------------------| 
B|---/15-18-15~~----------10-13-------13-10---10-10-------13-13-10--| 
G|-----------------/10-12--------10-12--------10-10-12-12-12-12-10--| 
D|--------------------------------------------------10-10-----------| 
A|------------------------------------------------------------------| 
D|------------------------------------------------------------------| 
 
e|---------------------------------------------------------| 
B|-------10-10-13-10-12-10---10----------------------------| 
G|---12b-------------------13---13-12-11-10----------------| 
D|------------------------------------------12-11-10b~~~~--| 
A|---------------------------------------------------------| 
D|---------------------------------------------------------| 
 
e|--------------------------------| 
B|-----------------------15-13~~--| 
G|--12-------10-12-12/14----------| 
D|-----14~~-----------------------| 
A|--------------------------------| 
D|--------------------------------| 
 
nemo say nemoooo... 
nemo letting gooooooo.... 
        
    F5                                     2x   
e|---------------------------------------------------| 
B|---------------------------------------------------| 
G|---------------------------------------------------| 
D|---------------------------------------------------| 
A|--3--------3--3-----3--3-----------------3--3--3---| 
D|--3--3--3--3--3--3--3--3--3--3--3--3--3--3--3--3---| 
 pm    ____        _        ______________________ 
 
    F5					   G#5 D#5 
e|---------------------------------------------------| 
B|---------------------------------------------------| 
G|---------------------------------------------------| 
D|---------------------------------------------------| 
A|--3--------3--3-----3--3-----------------6---1-----| 
D|--3--3--3--3--3--3--3--3--3--3--3--3--3--6---1-----| 
 pm    ____        _        _____________ 
 
 
Refrão final 
      F5        D#5 
e|------------------------| 
B|------------------------| 
G|------------------------| 
D|----3----3----1----1----| 
A|----3----3----1----1----| 
D|----3----3----1----1----| 
 
      D5        G#5  D#5 
e|------------------------| 
B|------------------------| 
G|------------------------| 
D|----3----3----6----1----| 
A|----3----3----6----1----| 
D|----3----3----6----1----| 
		  

Full key step upFull key step up
Half key step upHalf key step up
Half key step downHalf key step down
Full key step downFull key step down
hide glossary

See also:

tabs Nightwish - Dark Chest Of Wonders tabs HIM - And Love Said No tabs HIM - And Love Said No (ver. 2) tabs HIM - You Are The One tabs HIM - The Beginning Of The End tabs Apocalyptica - Hall Of The Mountain King
e-chords

Other versions:

tabs Nightwish - Nemo tabs Nightwish - Nemo (intro) tabs Nightwish - Nemo (ver. 2) tabs Nightwish - Nemo (ver. 3) tabs Nightwish - Nemo Solo
auto scroll beats size up size down change color hide chords drawings
tab show chords e-chords YouTube Clip e-chords hide all tabs e-chords go to top tab

share