Nightwish

Nemo

Nightwish

tabs Expert expert

by  GUITARRADRUGA

save to print version add songbook text version e-mail correct tuner
chordsukulelecavacokeyboardtabbassdrumsharmonicaflute Guitar Pro
close

there isn't a video lesson for this song

chords

Nemo

Key:  D5 More
Nemo Key A5A5
Nemo Key A#5A#5
Nemo Key B5B5
Nemo Key C5C5(one step down)
Nemo Key C#5C#5(half step down)
Nemo Key D5D5(original key)
Nemo Key D#5D#5(half step up)
Nemo Key E5E5(one step up)
Nemo Key F5F5
Nemo Key F#5F#5
Nemo Key G5G5
Nemo Key G#5G#5
	  		NEMO - NIGHTWISH 
 
intro no teclado 
 
 
 
intro da guitarra 
-------------------------------- 
-------------------------------- 
---------5-----3----------------- 
----5----5-----3--------------- 
----5----3-----1---------------- 
----3-------------------------- 
 verso depois de algumas frases da tarja  
()abafado 
-------------------------------- 
-------------------------------- 
------------------------------- 
--(7)---(9)----(5)---(3)---------------- 
--(7)---(9)----(3)---(3)---------------- 
--(5)---(7)----------(1)-------------- 
 
 
Refrao 
 
---------------------------------- 
---------------------------------- 
------------5------3---------------- 
-----5------5------3----------------- 
-----5------3------1----------------- 
-----3----------------------------- 
pré-solo 
                               /3x 
----------------------------------- 
------------------------------------ 
----------------------------------- 
-5~----(3)----5~---(3)----3_5_3/-5-----5-----5-----5--- 
-5~----(3)----5~---(3)----3_5_3/-5-----5-----5-----5--- 
-3~----(1)----3~---(1)---------/-3-0-0-3-0-0-3-0-0-3--- 
 
---------------------------------- 
---------------------------------- 
----------5----3-------------------- 
-3_5_3----5----3------------------------- 
-3_5_3----3----1------------------------- 
---------------------------------- 
 
 
---------------------------------- 
--------------------------------- 
------------------------------ 
-----5-5-5-------------5-5-5------------5----------- 
-----5-5-5-------------5-5-5------------5------------ 
-----3-3-3-0-0-0-0-0-0-3-3-3-0-0-0-0-0-03------------- 
 
 
 
 
 
 
 

		  

See also:

tabs Nightwish - Wanderlust tabs HIM - And Love Said No tabs Nightwish - Ghost Love Score tabs HIM - Wicked Game (acustica) tabs Stratovarius - Speed of light tabs HIM - It's All Tears (Unplugged)
e-chords

Other versions:

tabs Nightwish - Nemo tabs Nightwish - Nemo (intro) tabs Nightwish - Nemo (ver. 2) tabs Nightwish - Nemo (ver. 3) tabs Nightwish - Nemo Solo
auto scroll beats size up size down change color hide chords drawings
tab show chords e-chords YouTube Clip e-chords hide all tabs e-chords go to top tab

share