Nightwish

Elvenpath (v. 2)

Nightwish

tabs

by  * BARDO *

save to print version add songbook text version e-mail correct tuner
chordsukulelecavacokeyboardtabbassdrumsharmonicaflute Guitar Pro
close

there isn't a video lesson for this song

chords

Elvenpath (v. 2)

	  		Do álbum "Angels Falls First" 
Música e Letra por: Tuomas Holopainen 
				 
Transcrito por: John Ervilha Mello ([email protected]) 
 
 
>(0:24) {Aqui começa a guitarra} 
 
E|-------------------------| 
B|-------------------------| 
G|-------------------------| 
D|-------------------------| 
A|----3--2--0-----5--3-----| 
E|1------------3--------3--| 
 
 
>(0:27)Riff 1 {Toque isso 4 vezes, sempre alternando as finalizações. Atenção à pegada!}: 
 
E|-----------------------|-----------------------|-------------------- 
B|-----------------------|-----------------------|-------------------- 
G|-----------------------|-----------------------|-------------------- 
D|-----------------------|-----------------------|-------------------- 
A|-------7----7--5----7--|-------7----7--5----7--|-------7----7--5---- 
E|----5--5----5--3----5--|----5--5----5--3----5--|----5--5----5--3---- 
 
(Primeira finalização):    (Segunda finalização): 
E|-------------------------||-------------------------||| 
B|-------------------------||-------------------------||| 
G|-------------------------||-------------------------||| 
D|----------------7--5-----||-------------------------||| 
A|----3--2--0--5--------5--||----3--2--0--5--5--3-----||| 
E|1------------------------||1---------------------3--||| 
 
 
>Verso(0:53) {Essa parte é muito legal!! Toque os Power Chords e deixe-os soar!}: 
E|-------------------------------------------| 
B|-------------------------------------------| 
G|---------------------7---------------------| 
D|--7-----8---5---7----7---3---5---8---5---7-| 
A|--7-----8---5---7----5---3---5---8---5---7-| 
E|--5-----6---3---5--------1---7---6---3---5-| 
    A     B   G   A    D   F   A   Bb  G   A 
 
A       Bb              G      A 
Hearing music from the deepest forest 
D          F            A 
Songs as a seduction of sirens 
    Bb          G       A . A 
The elf-folk is calling me 
 
 
>Riff 2(1:04): 
E|-------------------------| 
B|-------------------------| 
G|-------------------------| 
D|--3--2--0----------------| 
A|-------------------0--2--| 
E|-------------1--3--------| 
 
 
>Ponte(1:06){Aqui é tocado os mesmos acordes do verso, só que com outra  
            pegada. Preste atenção aos Palm Muttings!!!} 
 
A                 Bb           G 
Tapio, Bear-king, Ruler of the forest 
A                    D             F 
Mielikki, Bluecloak, Healer of the ill and sad 
A                 Bb     G          A . A .. A . A ... 
Open the gate and let me follow the uncarven path 
 
 
>Refrão(1:19) {Toque os Power Chords bem rápido e com muita pegada, efetuando 
              os Palm Mutting quando precisar. Cuidado pra não embolar muito as  
              notas. Treine bastante, pra não se perder!!!}: 
 
    C          G 
The way to the lands 
           Bb      A 
Where as a hero I stand 
               F              D 
The path where Beauty met the Beast 
Elvenpath 
 
         C                G 
It's the honesty of these worlds 
         Bb                A        
Ruled by magic and mighty swords 
              F                  D 
That makes my soul long for the past 
Elvenpath 
 
>>>Tab do Refrão: 
           C                                G 
  E||---------------------------------------------------------------------- 
  B||---------------------------------------------------------------------- 
  G||---------------------------------------------------------------------- 
  D||------5--------------------------------------------------------------- 
  A||0--2--3--3-3-3-3-3-3-3-3-3-3-3-3-3-3---5------------------------------ 
  G||---------------------------------------3--3-3-3-3-3-3-3-3-3-3-3-3-3-3- 
    Bb                               A 
  ------------------------------------------------------------------- 
  ------------------------------------------------------------------- 
  ------------------------------------------------------------------- 
  --3--------------------------------2------------------------------- 
  --1--1-1-1-1-1-1-1-1-1-1-1-1-1-1---0--0-0-0-0-0-0-0-0-0-0-0-0-0-0-- 
  ------------------------------------------------------------------- 
    F                                D 
  ---------------------------------------------------------------- 
  ---------------------------------------------------------------- 
  ---------------------------------------------------------------- 
  -----------------------------------7----------7----------7------ 
  --3--------------------------------5--5-5-5-5-5--5-5-5-5-5--5-5- 
  --1--1-1-1-1-1-1-1-1-1-1-1-1-1-1-------------------------------- 
 
  {Atenção aqui!! Na segunda vez, NÃO toque isso!} 
  -------------------------------------------------------------------|| 
  -------------------------------------------------------------------|| 
  -------------------------------------------------------------------|| 
  -------------------------------------------------------------------|| 
  --5-7-7-7-7-7-7-7-5-7-7-7-7-7-7-7---5-7-7-7-5-7-7-7-7-8-7-5-3--0-0-|| 
  -------------------------------------------------------------------|| 
 
 
>Riff 1 (1:43){4 vezes. Não se esqueça de alternar as finalizações do riff!} 
 
 
>Verso 2 (2:09): 
     A         Bb           G         A 
The moonwitch took me to a ride on a broomstick 
      D               F           A 
Introduced me to her old friend home gnome 
 Bb         G         A . A 
Told me to keep the sauna warm for him 
 
 
>Riff 2 (2:20) 
 
 
>Ponte (2:22): 
        A                          Bb         G 
At the grove I met the rest - the folk of my fantasies 
A                D            F 
Bilbo, Sparhawk, goblins and pixies 
 A                Bb             G 
Snowman, Willow, trolls and the seven dwarves 
  A . A .. A . A ... 
The path goes forever on 
 
 
>Refrão (2:35) 
 
 
>(2:59) {MUITA ATENÇÃO AGORA!! Esse é basicamente o Riff 1, só que tem uma parte que  
        só o teclado faz... Faça as finalizações normalmente.} 
E|-----------------------|-----------------------|--------------------| 
B|-----------------------|-----------------------|--------------------| 
G|-----------------------|----|--------------------| 
D|--------------|-----------------------|-----------| 
A|-----------------------|-------7----7--5----7--|--------------------| 
E|-----------------------|----5--5----5--3----5--|--------------------| 
 
(Primeira finalização):    (Segunda finalização): 
E|-------------------------||-------------------------||| 
B|------||------||| 
G|-------------------------||-------------------------||| 
D|----------------7--5-----||-------------------------||| 
A|----3--2--0--5--------5--||----3--2--0--5--5--3-----||| 
E|1------------------------||1---------------------3--||| 
 
 
>Riff 3 (3:12){Esse riff é bem fácil... :P} 
E|-----------------------------------|------------------------------------| 
B|-----------------------------------|------------------------------------| 
G|--------------------------------5--|------------------------------------| 
D|--2--3--2---2--3----2--3--2--3--5--|---2--3--2---2--3---2--3--2---3--5--| 
A|--2--3--2---2--1----2--3--2--3--3--|---2--3--2---2--3---2--3--2---3--5--| 
E|--0--1--0---0--1----0--1--0--1-----|---0--1--0---0--1---0--1--0---1--3--| 
 
 
>Riff 4 {Esse é, na minha opinião, o riff mais difícil da música! Preste muita  
        atenção aqui! Toque isso 2 vezes.} (3:26): 
 
|----------------------------------------------------------| 
|----------------------------------------------------------| 
|----------------------------------------------------------| 
|--------3--2--------5--3--------3--2----5--3--2-----------| 
|--0--0--------0--0--------0--0-------------------5--3--2--| 
|----------------------------------------------------------| 
 
|-----------------------------------------------------| 
|-----------------------------------------------------| 
|-----------------------------------------------------| 
|--------3--2--------5--3----3--------3--------3------| 
|--0--0--------0--0----------1--1--1--1--1--1--1--1---| 
|-----------------------------------------------------| 
 
|----------------------------------------------------------| 
|----------------------------------------------------------| 
|----------------------------------------------------------| 
|--------3--2--------5--3--------3--2----5--3--2-----------| 
|--0--0--------0--0--------0--0-------------------5--3--2--| 
|----------------------------------------------------------| 
 
|--------------------------------| 
|--------------------------------| 
|--------------------------------| 
|--------3--2--------5--3----0---| 
|--0--0--------0--0----------0---| 
|--------------------------------| 
 
{Aqui tá a letra dessa parte}: 
As I return to my room 
And as sleep takes me by my hand 
Madrigals from the woods 
Carry me to neverland 
In this spellbound night 
The world's an elvish sight 
In this spellbound night 
The world's an elvish sight 
 
 
>Riff 3 (3:52) {2 vezes} 
 
 
>SOLO (4:05) A base do solo é o Riff 1. Abaixo, segue a tab do solo!! Divirta-se :P} 
 
E|------------------------------------------ 
B|-------10-----12--13--12------------------ 
G|----9------9--------------12---9--10--9--- 
D|------------------------------------------ 
A|------------------------------------------ 
E|------------------------------------------ 
 
-------------------------------------------------------- 
-------10-----12--13--12-------------------------------- 
----9------9--------------12---------------------------- 
--------------------------------12--10--9----10--9------ 
----------------------------------------------------10-- 
-------------------------------------------------------- 
                                                             
-------------------------------------------------------- 
----------10----12----13----12--13--13--15--13--13--12-- 
-------9------------------------------------------------ 
-------------------------------------------------------- 
--7----------------------------------------------------- 
-------------------------------------------------------- 
                                                                      
----------------------------------------------------------------- 
------------------------------------------------8-10-8----------- 
----12------------------------------4-5-4-5-7-9--------9-7-9-7-5- 
----------------15p12-----------5-7------------------------------ 
----------------------15p12-------------------------------------- 
----------------------------13----------------------------------- 
                                                                      
------------------------------------------------------------- 
------------------------------------------------------------- 
----------------------------------------------------------2-- 
--7-----------------------------------------2--3--5--3----3-- 
---------7--5----3--0--------------0------------------------- 
------------------------------3------------------------------ 
                                                             
----------------------------------------------------- 
----5--3--------5------------------10-13-12-10-9-10-- 
----5--4--------5----------9-10-12------------------- 
----------------------7-10--------------------------- 
----------------------------------------------------- 
----------------------------------------------------- 
                                                                      
------------------8--12------------12-17--16--17---------------- 
------10-10-12-12--------12--13-------------------17------------ 
------------------------------------------------------17--14-16- 
---------------------------------------------------------------- 
---------------------------------------------------------------- 
---------------------------------------------------------------- 
                                                              
--------------------------------------------------------- 
--13-12-13----12----10--------10------------------------- 
------------------------12--------9--10--7--9------7----- 
-----------------------------------------------10-----9-- 
--------------------------------------------------------- 
--------------------------------------------------------- 
                                              
------------------------|| 
------------------------|| 
------------------------|| 
--10--7--9--6--7--------|| ACABOU!!!! :( 
------------------------|| 
------------------------|| 
 
Ah.. Sacanagem.... mas já.. uhauwh essa música é muito foda!! :p 
Espero que vocês se divirtam com essa tab!! Qualquer dúvida, meu MSN é  
[email protected] VLW!!!!! 

		  

Full key step upFull key step up
Half key step upHalf key step up
Half key step downHalf key step down
Full key step downFull key step down
hide glossary

See also:

tabs Nightwish - Dark Chest Of Wonders tabs HIM - And Love Said No tabs HIM - And Love Said No (ver. 2) tabs HIM - You Are The One tabs HIM - The Beginning Of The End tabs Apocalyptica - Hall Of The Mountain King
e-chords

Other versions:

tabs Nightwish - Elvenpath tabs Nightwish - Elvenpath (v. 2)
auto scroll beats size up size down change color hide chords drawings
tab show chords e-chords YouTube Clip e-chords hide all tabs e-chords go to top tab

share