Nightwish

Devil & The Deep Dark Ocean

Nightwish

tabs

save to print version add songbook text version e-mail correct tuner
chordsukulelecavacokeyboardtabbassdrumsharmonicaflute Guitar Pro
close

there isn't a video lesson for this song

chords

Devil & The Deep Dark Ocean

	  		 
Intro: 
 
e---------------------------------------------------------------------- 
b---------------------------------------------------------------------- 
g---------------------------------------------------------------------- 
d---------------------------------------------------7-7--6-6----------- 
a------7---------------5---3--------------532-------5-5--4-4----------- 
E--0-0---0-7h8-0-5-7-0---0---0-5h7--0-3-5----53-1---------------------- 
   . .   .     . .   .   .   .      . . . .....   
 
	In the second time, the ending chords are D5 - F5 (high) 
 
 
e---------------------------------------------------------------------- 
b---------------------------------------------------------------------- 
g---------------------------------------------------------------------- 
d---------------------------------------------------------------------- 
a--2-2--2-2------------------------------------------------------------ 
E--0-0--0-0------------------------------------------------------------ 
   . .  . . 
 
 
	Verse begins - devil (Wilska) 
 
	Play only at the end of each verse 
 
	F5 (high) 
	D5 C#5 
	F5 (h) 
	G5 (h) 
 
	Tarja sings 
 
e------------------------------------------------------------------------ 
b------------------------------------------------------------------------ 
g------------------------------------------------------------------------ 
d------------------10-----9----------------------------7-7--6-6---------- 
a--7-----8---7----------------8-----7-----8---7--------5-5--4-4---------- 
E----0-0---0---0-0----0-0---0---0-0---0-0---0---0-0-0-------------------- 
     . .   .   . .    . .   .   . .   . .   .   . . .  
 
	Vary the last two chords with a G5 (high) 
 
	Play the intro riff again, then verse again 
 
e------------------------------------------------------------------------ 
b------------------------------------------------------------------------ 
g------------------------------------------------------------------------ 
d------------------------------------------------------------------------ 
a--2-2--2-2-------------------------------------------------------------- 
E--0-0--0-0-------------------------------------------------------------- 
    Play this two times, the repeat it once with a G5 and then play F5  
in a different rhythm (find out by yourself, you lazy bastard) 
 
 
	Then enters that part with keyboards, drums, and Wilska switching  
vocals with Tarja. 
 
 
	"of goooooooood" 
e------------------------------------------------------------------------ 
b------------------------------------------------------------------------ 
g------------------------------------------------------------------------ 
d------------------------------------------------------------------------ 
a--2----------------7-9-10---9------------------------------------------- 
E--0----------------5-7-8----7------------------------------------------- 
	 
 
	Again, the part with Tarja and Wilska switching vocals. This time,  
there is a guitar: 
	 
e------------------------------------------------------------------------ 
b------------------------------------------------------------------------ 
g------------------------------------------------------------------------ 
d------------------------------------------------------------------------ 
a------------------------------------------------------------------------ 
E-00000-00000--000--00000--3-333-333-333-333-333-333-333----------------- 
Palm mute!  
 
When tarja enters, keep the notes but change the rhythm (just listen to  
the bassdrums) 
 
 
 
	"oooho oohohooohhhoooo" 
e------------------------------------------------------------------------ 
b------------------------------------------------------------------------ 
g------------------------------------------------------------------------ 
d----------------5--4---------------------------------------------------- 
a---2-----2------3--2---------------------------------------------------- 
E---0-----0-------------------------------------------------------------- 
 
 
	Now, that EXTREMELY weird part: 
 
e------------------------------------------------------------------------ 
b------------------------------------------------------------------------ 
g------------------------------------------------------------------------ 
d----------------4----6----7----6----4--------------7-------------------- 
a--44445444474444-4444-4444-4444-4444-4444744445444-5-------------------- 
E------------------------------------------------------------------------ 
   ................................................ 
 
	In the 2nd time, the ending chord is C5 
 
 
	Last part: 
 
	C5 D5 E5 (high) 
	C5 D5 G5 
 
 
_______________________________________________________ 
Contribuição: Tiago Dos Santos([email protected]) 

		  

Full key step upFull key step up
Half key step upHalf key step up
Half key step downHalf key step down
Full key step downFull key step down
hide glossary

See also:

tabs Nightwish - Dark Chest Of Wonders tabs HIM - And Love Said No tabs HIM - And Love Said No (ver. 2) tabs HIM - You Are The One tabs HIM - The Beginning Of The End tabs Apocalyptica - Hall Of The Mountain King
e-chords

Other versions:

tabs Nightwish - Devil & The Deep Dark Ocean
auto scroll beats size up size down change color hide chords drawings
tab show chords e-chords YouTube Clip e-chords hide all tabs e-chords go to top tab

share