Nightwish

Dead To The World

Nightwish

tabs Easy easy

by  DU HAST

save to print version add songbook text version e-mail correct tuner
chordsukulelecavacokeyboardtabbassdrumsharmonicaflute Guitar Pro
close

there isn't a video lesson for this song

chords

Dead To The World

	  		Dead To The World 
All the same take me away 
We're dead to the world 
 
intro com teclado (deixando soar) 
 
F  C F  Bb Ab G (no sol não deixa soar) 
F  C F C#   Bb Ab G 
 
Com a guitarra base Fazendo " A " 
D|---5/7-7-7-7-7-7-7---5/7-7-7-7-7-7-7---5/7-7-7-7-7-7-7---5/7-7-7-7-7-7-7--| 
 
Com guitarra base fazendo " F " 
A|---8--8--8-5--|   D  C B 
 
 
D|--2------2-----------7---|  Mantém o lá 
A|----5-3----5-3-2-----7---|  até a música parar 
E|-----------------3---5---| 
 
 
Verso 1 
 
The child gave thought to the poet's world 
Gave comfort to the Fallen 
D|----------5-7----------------------------------7-| 
A|--7-7-5-0-----7-7-5-0-3-2--5-5-3-2-3-5-5-3-2-3-5-| 
E|--5-----------5------------3----3----3----3------| 
mantém o ré até o ... 
 
G/A A    G/F F 
Hearfelt lovelorn 
 
Remaining, yet still uninvited 
Those words scented my soul 
D|----------5-7----------------------------------7-| 
A|--7-7-5-0-----7-7-5-0-3-2--5-5-3-2-3-5-5-3-2-3-5-| 
E|--5-----------5------------3----3----3----3------| 
mantém o ré até o ... 
 
G/A    A    G/F   F 
Lonely soul Ocean soul 
 
 D                                A 
 It's not the monsters under your bed 
 It is the Man next door 
C               G               D  
 That makes you fear, makes you cry, 
           A   C       D 
 Makes you cry for the child 
                               A 
 All the wars are fought among those lonely men 
 F        G 
 Unarmed, unscarred 
 
Verso 
 
I don't want to die a scarless man 
A lonely soul 
D|----------5-7----------------------------------7-| 
A|--7-7-5-0-----7-7-5-0-3-2--5-5-3-2-3-5-5-3-2-3-5-| 
E|--5-----------5------------3----3----3----3------| 
mantém o ré até o ... 
 
G/A     A   G/F     F 
Tell me now what to do 
 
I studied silence to learn the music 
I joined the sinful to regain innocence 
D|----------5-7----------------------------------7-| 
A|--7-7-5-0-----7-7-5-0-3-2--5-5-3-2-3-5-5-3-2-3-5-| 
E|--5-----------5------------3----3----3----3------| 
mantém o ré até o ... 
 
 G/A    A      G/F   F 
 Heaven queen, cover me 
 F/G G       A 
 In all that blue 
 G/A    A    G    G/F      F 
 Little boy, such precious joy 
    C           G 
 Is dead to the world 
 
 C/D    D      A/G   G 
 Heaven queen, carry me 
  C            D 
 Away from all pain 
 C/D     D         C/Bb Bb 
 All the same take me away 
       F           C 
 We're dead to the world 
 
 
 D    A Bb  G 
 D    A Bb  G F 
 
 B             G 
 Dead, silent, constant 
(G   F# E)com 8º E 
 Yet always      changing 
             D            C#  B 
 My favorite view of this world 
 
 
 Aqui tá a base do solo o solo tá no final 
 D C A A   D C A A   Bb A Bb A   G  Bb A D 
 
 Essa parte é só o piano 
 
 As he died, he will return to die in me again 
Weaving the cloth, giving birth to the Century Child 
Who gave his life not for the world but for me 
Innocence reborn once more 
 
 Heaven queen, carry me 
  C            D 
 Away from all pain 
 C/D     D         C/Bb Bb 
 All the same take me away 
       F           C 
 We're dead to the world 
 
 
 G/A    A      G/F   F 
 Heaven queen, cover me 
 F/G G       A 
 In all that blue 
 G/A    A    G    G/F      F 
 Little boy, such precious joy 
    C           G 
 Is dead to the world 
 
 G/A    A      G/F   F 
 Heaven queen, carry me 
  G            A 
 Away from all pain 
 G/A     A         G/F  F 
 All the same take me away 
       C           G 
 We're dead to the world 
 
  
       C       G   A 
 We're dead to the world. 
 
 
Solo 
 
a primeira nota é um harmonico gritado 
e|------------------------------------------------- 
B|---------------------------8b-b8-b8-b8-b8-b8-b8b- 
G|-10b--------7-9b---9b-9-7\----------------------- 
D|-----7-9-10-------------------------------------- 
A|------------------------------------------------- 
E|------------------------------------------------- 
 
e----------------10-10-----------------10-10------- 
B|-------10-11-13------13-13---10-11-13------13-13- 
G|9-10-12--------------------12-------------------- 
D|------------------------------------------------- 
A|------------------------------------------------- 
E|------------------------------------------------- 
 
e|-------------------------------------------------| 
B|-------------------------------------------------| 
G|-------------------------------------------------| 
D|--------------15--14--12--10--12/14--12--10--9--7| 
A|----------12--13--12--10--8---10/12--10--8---7--5| 
E|-12-13-15----------------------------------------| 
 
 
 

		  

Full key step upFull key step up
Half key step upHalf key step up
Half key step downHalf key step down
Full key step downFull key step down
hide glossary

See also:

tabs Nightwish - Devil & The Deep Dark Ocean tabs HIM - Heaven Tonight tabs Nightwish - Elvenpath (v. 2) tabs Nightwish - Wish I Had An Angel tabs Nightwish - Gethsemane tabs Nightwish - Nemo
e-chords

Other versions:

tabs Nightwish - Dead To The World tabs Bullet for my Valentine - Dead To The World
auto scroll beats size up size down change color hide chords drawings
tab show chords e-chords YouTube Clip e-chords hide all tabs e-chords go to top tab

share