Night To Remember

home > Night To Remember

12 Summers Old Tab

Night To Remember

Difficulty: nolevelnolevel

by Nick+D

tuner correct add songbook print version text version save to e-mail
chordsukulelecavacokeyboardtabbassdrumsharmonicsflute Guitar Pro
chords

12 Summers Old

  		Guitar 1 (Intro) 
E--------------------------------| 
B------------------5-------------| 
G-----6h4-6-7-6-44---7h6-7-6h4-6-| 
D---------------..---------------| 
A--------------------------------| 
E--------------------------------| 

(Keep on doing this the whole intro but end with) 

-------| 
-------| 
----14-| 
-----\-| 
----12-| 
-------| 


(Verse)(x2) 
E---------------------------| 
B---------------------------| 
G--77-77---------77---------|  (wierd strumming) 
D--77-77--44-44--77--44--22-| 
A--55-55--44-44--55--44--22-| 
E---------22-22------22--00-| 


(Chorus)(Same as intro) 

(Verse)2 (Same as the first) 

Bridge 
E------------------------------| 
B------------------------------| 
G----7777--------7777----------|  (X2) 
D----7777--4444--7777--44--22--| 
A----5555--4444--5555--44--22--| 
E-----..---2222---..---22--00--| 
            .. 
Little fill before Chorus (Guitar 2 does it) 
---------------| 
---------------| 
-11/13/11/9/11/9/7  (Let ring the last Chord) 
--x/ x/ x/x/x/x/x 
- 9/10/ 9/7/9/7/5 
--------------- 

Chorus (same as the others, but start later) 

Bridge 2 
E-----------| 
B-----------| 
G---7-----7-| 
D---x-----7-| 
A---5-----5-| 
E-----------| 

-------------------------------------------------------| 
-------------------------------------------------------| 
-------------------------------------------------------| 
----777777777777---------------------------------7-----| 
----555544444444---------------------------------x-----| 
----............---------------------------------5-----| 
(Slowly strumming at the end) 

(Bridge 2) second part 
-----9h10-9---------9h10-9----------| 
---10------10-(9)-10------10-(9)-10-| 
------------------------------------| 
------------------------------------| 
------------------------------------| 
------------------------------------| 

(Chorus)X2 

Guitar 2 (Intro) 
E------------------| 
B------------------|   (Let ring every chord) 
G------7-----------| 
D--7---7---4---2---| 
A--7---5---4---2---| 
E--5-------2---0---| 

Verse (Same as guitar 1) 

Chorus 
E-------------------| 
B-------------------| 
G-----7-------------| 
D--7--7--4--2-------| 
A--7--5--4--2-------| 
E--5-----2--0-------| 

After the first Chorus there's a 
----------|  Strumming right before the second verse. 
----------| 
----------| 
-4-4------| 
-4-4------| 
-2-2------| 

Bridge 1 (Same as guitar 1)(Does the fill) 

Chorus (starts later) (x2) 

Bridge 2 (Part One) (same as guitar 1) 
(Part Two) 
E--------------------------------------------------| 
B--------------------------------------------------| 
G--------------------------77-77-77-77-------------| 
D--77-77-77-77-99-99-99-99-77-77-77-77-99-99-99-99-| 
A--77-77-77-77-99-99-99-99-55-55-55-55-99-99-99-99-| 
E--55-55-55-55-77-77-77-77-------------77-77-77-77-| 

(Chorus)(x2) 


	  

Search Paypal
auto scroll beats size up size down change color hide chords drawings
tab show chords e-chords YouTube Clip e-chords hide all tabs e-chords go to top tab